Santos Paolo - Because Of You Chords & Tabs

 

Because Of You Chords & Tabs

Santos Paolo Chords & Tabs

Version: 1 Type: Tab 0 ratings
1 star 2 stars 3 stars 4 stars 5 stars
comments

Because Of You Tab

   
BECAUSE OF YOU
Paolo Santos

johnsantos_17@yahoo.com

Standard tuning: (EADGBE)
Capo on 1st fret

Intro:

E---------------------------------
B----3-0-----3--------3-0-----3--1-------
G---0-0-----0-0-2----0-0-----0-0-----------
D--2-------2--------2-------2---------
A-3-------3--------3-------3----------
E---------------------------------

Verse:

E-0-----------0---------------------
B-----3------3------1-----1-3----------
G----0-0----0-------2-----------------
D---2------2-------3-----0------------
A-3-------3-------3-----2-------------
E----------------1-----3------------

E-0-----------0---------------------
B-----3------3------1-----1----1-------
G----0-0----0-------2---------0--------
D---2------2-------3-----0---0---------
A-3-------3-------3-----2-------------
E----------------1-----3----4--------

Pre-chorus:

E-------------------------------
B----1-1------3-----1-----3---3-
G---0-0------2------2-----------
D--2--------4------3-----0---0--
A-0-------02------3-----2---2---
E----------------1-----3--------

E---------------0-------
B----1-1--3-----1--1-0--
G---0-0----0------------
D--2-----------3--------
A-0-------2----3---2-2--
E----------0---1---3-3--

Chorus:
[ Tab from: http://www.guitartabs.cc/tabs/s/santos_paolo/because_of_you_tab.html ]
E-0--0-----------------------
B-0--3-----3------1-----1----1---
G---0-----0------2----------0--
D--2-----0------3------0---0------
A-3-----3------3------2---------
E-------------1------3----4---

E--------------------------
B----1-----3------4-----1-3-----
G---0-----2------2------------
D--2-----4------3------0-------
A-0-----2------3------2--------
E-------------1------3-------

Bridge:

E--------------------------
B-1--1----1---3--3--------------
G-0-0----0------2----2---0-------
D--2----2------4------4--0------
A-0----0------2------2-2--------
E------------------------0--

E-------------------0---------1-
B-----1-----1-------3-----0-1---
G----2-----2-------0-0---------
D---3-----3-------0---0--------
A--3-----3-------2------------
E-1-----1-------3--------3-----

E--------------------------
B-1--1----1---3--3--------------
G-0-0----0------2----2---0-------
D--2----2------4------4--0------
A-0----0------2------2-2--------
E------------------------0--

E-------------------0------------0-
B-----1-----1-------3-------3-2----
G----2-----2-------0-0------0-0-0--
D---3-----3-------0---0----2-------
A--3-----3-------2--------0--------
E-1-----1-------3------------------

Last chorus: 1 note higher (C to D)

=====()w&_17=====
Comments