Santos E Pecadores - Momento Final Chords & Tabs

 

Momento Final Chords & Tabs

Santos E Pecadores Chords & Tabs

Version: 1 Type: Tab 1 rating
1 star 2 stars 3 stars 4 stars 5 stars
comments

Momento Final Tab

   
Santos & Pecadores - Momento Final

intro   
   G     A      D
E|-3--3--0----0------0-2-0--------0-2-0-----
B|-3---3-2--3---3--3-3-3--2--3--3-3-3--2----
G|-0-0---2-2-2--2-2--------3-2-2--------3---
D|--------------0------------0--------------
A|-------0----------------------------------
E|-3----------------------------------------

   G         A             D
Sentado, e a arvore ali ao pé de mim
o vento agora, já nem em aqui
deixei de ter com quem falar
fiquei sozinho com o meu olhar

   G         A             D
oh ohooo ohhh ohoohoh  ohohoho

G Bm A A A A

   G     Bm    A         D
E|-3-3-3-2--------------------0-2-0--------0-2-0-----
B|-3-3-3-3--3--2--2--3-5-3--3-3-3--2--3--3-3-3--2----
G|-0-0-0-4-4-4-2-2-2-----2-2--------3-2-2--------3---
D|-----------------------0------------0--------------
A|-------2-----0-----0-0-----------------------------
E|-3-3-3---------------------------------------------


   G     Bm    A         D
E|-3-3-3-2--------------------0-2-0--------0-2-0------------
B|-3-3-3-3--3--2--2--3-5-3--3-3-3--2--3--3------3-2-0-0-2-3-
G|-0-0-0-4-4-4-2-2-2-----2-2--------3-2-2------------3------
D|-----------------------0------------0---------------------
A|-------2-----0-----0-0------------------------------------
E|-3-3-3----------------------------------------------------
[ Tab from: http://www.guitartabs.cc/tabs/s/santos_e_pecadores/momento_final_tab.html ]
   G        A            D
do longe se faz bem mais perto
sentindo que o tempo corre incerto
ouvindo sons que só eu sei pensar
sorrindo parto para outro lugar


   G     Bm    A         D
E|-3-3-3-2--------------------0-2-0--------0-2-0-----
B|-3-3-3-3--3--2--2--3-5-3--3-3-3--2--3--3-3-3--2----
G|-0-0-0-4-4-4-2-2-2-----2-2--------3-2-2--------3---
D|-----------------------0------------0--------------
A|-------2-----0-----0-0-----------------------------
E|-3-3-3---------------------------------------------
   oh     ohooo      ohhh     ohoohoh   


   G     Bm    A         D
E|-3-3-3-2--------------------0-2-0-----0-0-2-2-0-0--
B|-3-3-3-3--3--2--2--3-5-3--3-3-3--2--3-3-3-3-3-3-3--
G|-0-0-0-4-4-4-2-2-2-----2-2--------3-2-2-2-2-2-2-2--
D|-----------------------0------------0-0-0-0-0-0-0--
A|-------2-----0-----0-0-----------------------------
E|-3-3-3---------------------------------------------
   oh     ohooo      ohhh     ohoohoh  

   G     Bm    A         
E|-3-3-3-2-2-2-0-0-0-0-0-0-0-0-0-0-0-----
B|-3-3-3-3-3-3-2-2-2-2-2-2-2-2-2-2-2-----
G|-0-0-0-4-4-4-2-2-2-2-2-2-2-2-2-2-2-----
D|---------------------------------------
A|-------2---2-0---0-0---0-0---0-0-------
E|-3---3---------------------------------

   D             G    D             A
no meu momento final, sei que tenho um lugar
D                 G      D          A           x2
onde um Santo e Pecador, pode enfim descansar

D         G D       A
Turu tururu turu uh uh
D         G D       A
Turu tururu turu uh uh



Tabbed by Claudio Quina
questions email-me to claudioquina@hotmail.com
Comments