Santo And Johnny - Sleepwalk Chords & Tabs

 

Sleepwalk Chords & Tabs

Santo And Johnny Chords & Tabs

Version: 1 Type: Tab 0 ratings
1 star 2 stars 3 stars 4 stars 5 stars
comments

Sleepwalk Tab

E -----------------3-3-3----------------15-17-21-20
B –5~6-6-6-6-6-------------------------------------
G ------------------------2-2-2-2-2~4--------------
[ Tab from: http://www.guitartabs.cc/tabs/s/santo_and_johnny/sleepwalk_tab.html ]
E -------------9-----------------9
B -----------------9-7-9-10-9-7—9-7-9-10-9-7-9-----9
G --3-3-3-3~5---------------------------------------

E -----------------------
B -----------------------
G --10---10-6-3-4-8-8-9-4

Repeat a shitload of times

Comments