Santana Everlast - Put Your Lights On Chords & Tabs

 

Put Your Lights On Chords & Tabs

Santana Everlast Chords & Tabs

Version: 4 Type: Tab 2 ratings
1 star 2 stars 3 stars 4 stars 5 stars
comments

Put Your Lights On Tab

Intro to Santana & Everlast, Put Your Lights On
[ Tab from: http://www.guitartabs.cc/tabs/s/santana_everlast/put_your_lights_on_tab_ver_4.html ]
E0-0-0-0--0-0-0-0-0--3-3-3-3--1-1-1-1--0-0---------------------
B1-1-0-1--1-1-3-1-0--3-3-3-3--1-1-1-1--0-0----------------------
G2-2-2-2--0-0-0-0-0--0-0-0-0--2-2-2-2--1-1-------------------
D2-2-2-2--2-2-2-2-2--0-0-0-0--3-3-3-3--2-2------------------------
A0-0-0-0--3-3-3-3-3--2-2-2-2-------------2-2--------------------
E------------------------3-3-3-3--------------0-0-------------------

Intro solo
E-8--7--5-----------------------------------------------
B------------------------------8b--------------------
G----------------7--9--7--9------9/7-6b------------
D-----------------------------------------------------
A--------------------------------------------------------
E------------------------------------------------------
Comments