Santana Everlast - Put Your Lights On Chords & Tabs

 

Put Your Lights On Chords & Tabs

Santana Everlast Chords & Tabs

Version: 3 Type: Tab 1 rating
1 star 2 stars 3 stars 4 stars 5 stars
comments

Put Your Lights On Tab

   
Song:Put Your Lights On (feat. Everlast)
ARTIST: Carlos Santana   (Supernatural)
Tabbed by: Juraj Seris (reverend_braun@email.com)
I realize how the song starts but the whole continuing is on you!
Have fun!

Chords: Am   C   G   C   E

   GET THE RHYTHM FROM CD!!! THE TIMING IS ALSO ON YOU!

    Ami          C            G          C    +    E
e|--0-0-0-0-0---0-0-0-0-0-0---3--3^0-----0-0-0---0-0---| 
b|--1-1-1-3-1---1-1-3-1-3-1---0--0---3---1-1-1---0-0---|
g|--2-2-2-2-2---0-0-0-0-0-0---0------0---0-0-0---1-1---|
D|--2-2-2-2-2---2-2-2-2-2-2---0----------2-2-2---2-2---|
A|--0-0-0---0---3-3---3---3---2----------3-3-3---2-2---|
E|----------------------------3------------------------|

^ - hammer-on / pull-off
~ - let the note sound
[ Tab from: http://www.guitartabs.cc/tabs/s/santana_everlast/put_your_lights_on_tab_ver_3.html ]
It's very simple. This is originally played by two guitars, I remade
it for one guitar, and it still sounds great.
The last group of chords - C+E  lasts full time together only.

SOLO: (play fluently with chords)
            THIS IS JUST A BEGINNING!
  Am, C, G, C, E
e|--8^5-------------------------------------|
b|-----5~---5---5--8~----8^5--3-------------|
g|------------7------------------5^7^5------|........and so on...
D|------------------------------------------|
A|------------------------------------------|
E|------------------------------------------|

Lyrics> Hey now...all you sinners...put your lights on...
     ...hey now...all you lovers...  
      ......all you killers.....  

...and so on.You can get somewhere on the net, sure. 

Good luck! 
That's all, folks! 
Juraj Seris 

 
Comments