Santana - Why Dont You And I Chords & Tabs

 

Why Dont You And I Chords & Tabs

Santana Chords & Tabs

Version: 4 Type: Tab 0 ratings
1 star 2 stars 3 stars 4 stars 5 stars
comments

Why Dont You And I Tab

   
Santana feat. Chad Kroeger - Why Dont You And I
-=============================================-
Band-Santana feat. Chad Kroeger
Tabbed By-Clayton Botha (South Africa)
E-Mail-theno69@hotmail
Tuning-Drop-D

Intro (Solo):
-===========-
e|--------------------------------------------------|
B|--------------------------------------------------|
G|-5h7-5~~-3h5-3~~~-3-------5-----------------------|
D|--------------------7~~-7---8-7-8-7-5~~~-----8~~~-|
A|----------------------------------------8h10------|
D|--------------------------------------------------|

e|--------------------------------------------------|
B|-----------------------------------15-15h16p15~~~-|
G|-----12-12-12-14-14-15-15-17-15-17----------------|
D|-/12----------------------------------------------|
A|--------------------------------------------------|
D|--------------------------------------------------|

e|-----------13-------------------------------------|
B|--15-13-15----16-15-13----13-15-13-14b15r14b15~~~-|
G|-----------------------15-------------------------|
D|--------------------------------------------------|
A|--------------------------------------------------|
D|--------------------------------------------------|

Verse (Rhythm): 
-=============-
E|------------------------------------|
B|------------------------------------|
G|-3-3-3-3----------------------------|
D|-3-3-3-3--3-3-3-3--1-1-1-1--1-1-3-3-|
A|-1-1-1-1--3-3-3-3--1-1-1-1--1-1-3-3-|
D|----------3-3-3-3--1-1-1-1--1-1-3-3-|

Verse-1 (Lead):
-=============-
  "Butterflies"       "Then you'd know id lie" "Try 2 talk 2u"
e|------------------||----------------------||----------------|
B|------------------||----------------------||-13/15-13-11-11-|
G|------12-15-12~~~-||-10-12-15-12-12--12~~-||----------------|
D|-9/12-------------||----------------------||----------------|
A|------------------||----------------------||----------------|
D|------------------||----------------------||----------------|

Chorus:
-=====-
E|----------------------------|
B|----------------------------|
G|--3-3-----------------------|
D|--3-3----3-3----1-1----1-3--|
A|--1-1----3-3----1-1----1-3--|
D|---------3-3----1-1----1-3--|

Verse (Solo):
-===========-
e|------------------------------------------------------------|
B|------------------------------------------------------------|
G|-5h7-5~~-3h5-3~~~3-------5--------------/10-12-15-12-12-15\-|
D|-------------------7~~-7---8-7-8-7-5~~~---------------------|
A|------------------------------------------------------------|
D|------------------------------------------------------------|

e|---------------------15-15-17-17-18-18-20-18-20-18-20-------|
B|-13/15-13-15---13/15----------------------------------------|
G|------------------------------------------------------------|
D|------------------------------------------------------------|
A|------------------------------------------------------------|
D|------------------------------------------------------------|

e|-21b22-b22-b22-b22r21-18-18-20-15-15\-----------------------|
B|------------------------------------------------------------|
G|------------------------------------------------------------|
D|------------------------------------------------------------|
A|------------------------------------------------------------|
D|------------------------------------------------------------|

Verse-2 (Lead):
-=============-
  "Puppy chasing u around"     "Gona come down"       
e|---------------------------||-------------------|
B|---------------------------||-------------------|
G|-15b-15b-------------------||-------------------|
D|-15b-15b-15----------------||-15----------------|
A|------------15-13-15-13~~~-||----15b16r15-13~~~-|
D|---------------------------||-------------------|

   "Bouncing Round"   (In the background: loop this twice)
e||-18-20b12-20-18-||-10----10----8----8----11----11----11~~~-|
B||----------------||----11----11---10---10----11----11-------|
G||----------------||-----------------------------------------|
D||----------------||-----------------------------------------|
A||----------------||-----------------------------------------|
D||----------------||-----------------------------------------|
[ Tab from: http://www.guitartabs.cc/tabs/s/santana/why_dont_you_and_i_tab_ver_4.html ]
Main Solo:
-========-
e|--14b15-15-14b15-15-14b15-15-17-18-17-15-15\------|
B|--------------------------------------------------|
G|--------------------------------------------------|
D|--------------------------------------------------|
A|--------------------------------------------------|
D|--------------------------------------------------|

e|-----------15-15-13-15-13-15-15-18/20-20-15-15\---|
B|--13/15-15----------------------------------------|
G|--------------------------------------------------|
D|--------------------------------------------------|
A|--------------------------------------------------|
D|--------------------------------------------------|

e|--20-18-20-18-20-18-20-18-20-18-21b22-b22-b22-b22r21--------|
B|------------------------------------------------------------|
G|------------------------------------------------------------|
D|------------------------------------------------------------|
A|------------------------------------------------------------|
D|------------------------------------------------------------|

e|-18-18-20-15-15-15-18\----------------18~-17-18-17-15-14-15-|
B|-----------------------15-15----18-15-----------------------|
G|-----------------------------15-----------------------------|
D|------------------------------------------------------------|
A|------------------------------------------------------------|
D|------------------------------------------------------------|

e|--18p15p13-15-15-15-13----------------------------|
B|-----------------------15-13b14r13-13-------------|
G|--------------------------------------15----------|
D|--------------------------------------------------|
A|--------------------------------------------------|
D|--------------------------------------------------|

e|--------------------------------------------------|
B|--14b15-15-14b15-15-15b17-18-18-18\11-11----------|
G|--------------------------------------------------|
D|--------------------------------------------------|
A|--------------------------------------------------|
D|--------------------------------------------------|

e|--------------------------------------------------|
B|--------------------------------------------------|
G|--15-15---15-15---15-15---15h17r15----------------|
D|--15-15---15-15---15-15---15-------15-------------|
A|--------------------------------------15--13~~~\--|
D|--------------------------------------------------|

Interlude (SOFT):
-===============-
e|--------------------10----------------------------|
B|--11----11----11----------11----11----11----11----|
G|-----12----12----12----12----12----12----12----12-|
D|--------------------------------------------------|
A|--------------------------------------------------|
D|--------------------------------------------------|

e|--------------------10----------------------------|
B|--13----13----13----------11----11----11--(STOP)--|
G|-----12----12----12----12----12----12-------------|
D|--------------------------------------------------|
A|--------------------------------------------------|
D|--------------------------------------------------|

Outro (Solo):
-===========-
e|--------------------------------------------------|
B|--------------------------------------------------|
G|-14h15-14~~-15p14-12~~-14h15-14~~-------12-15-12--|
D|----------------------------------12-15-----------|
A|--------------------------------------------------|
D|--------------------------------------------------|

e|--------------------------------------------------|
B|-----------------------11-13-13/15-15-15-15-11-11-|
G|-14h15-14~~-15p14-12~~----------------------------|
D|--------------------------------------------------|
A|--------------------------------------------------|
D|--------------------------------------------------|

e|--------------------------------------------------|
B|--------------------------------------------------|
G|-14h15-14~~-15p14-12~~-14h15-14~~-------12-15-12--|
D|----------------------------------12-15-----------|
A|--------------------------------------------------|
D|--------------------------------------------------|

e|-17h18-17~~-18p17-15------------------------------|
B|---------------------13/15-15-15-15-15-15-13-13~~-|
G|--------------------------------------------------|
D|--------------------------------------------------|
A|--------------------------------------------------|
D|--------------------------------------------------|

Finish with the Chorus fading out!
Any Questions or Comments or to just let me know what you thought
of the tab please E-Mail me: theno69@hotmail.com
Comments