Santana - Why Dont You And I Chords & Tabs

 

Why Dont You And I Chords & Tabs

Santana Chords & Tabs

Version: 2 Type: Tab 3 ratings
1 star 2 stars 3 stars 4 stars 5 stars
comments

Why Dont You And I Tab

INTRO
e|----------------------------------------------------|
B|----------------------------------------------------|
G|----------------------------------------------------|
D|-10/12-10.-8/10-8.-8-7.-8-10-8-7-8-7-------------8--|
A|-------------------------------------10.-10-8-10----|
E|----------------------------------------------------|

e|-------------------------------10.-11-10.-10-8-10-13-11-8-6-8-10/8.-10--|
B|---8-8-8-10-10-11-11-13-11-13-------------------------------------------|
G|-7----------------------------------------------------------------------|
D|------------------------------------------------------------------------|
A|------------------------------------------------------------------------|
E|------------------------------------------------------------------------|


[ Tab from: http://www.guitartabs.cc/tabs/s/santana/why_dont_you_and_i_tab_ver_2.html ]
e|-------------------------------------------------------------|
B|------------------------------------------------11-------11--|
G|------------------------------------------10-12----12-12-----|
D|-10/12-10.-8/10-8.-8-7.-8-10-8-7-8-7-------------------------|
A|-------------------------------------10.---------------------|
E|-------------------------------------------------------------|

e|-10-8-10--------------------8----8----8-10.-10..-10-8-------8----|
B|------------8-8-10-10-11-11---11---11-----------------11-11---8.-|
G|----------7------------------------------------------------------|
D|-----------------------------------------------------------------|
A|-----------------------------------------------------------------|
E|-----------------------------------------------------------------|

Solo
e|---------------------------------------8-6-------8/7--10..-
B|-8-8-8..-8-10-11-10-8----8-8-6-8-6-8-6-----8-8.------------
G|-----------------------7-----------------------------------
D|-----------------------------------------------------------
A|-----------------------------------------------------------
E|-----------------------------------------------------------

e|-10-8-6-6-8----------------6--5-6-5-6--------------|
B|------------8..--------6--------------8/6-8—-etc.--|
G|-----------------7-7-----7-------------------------|
D|---------------------8-----------------------------|
A|---------------------------------------------------|
E|---------------------------------------------------|
Comments