Santana - Soul Sacrifice Chords & Tabs

 

Soul Sacrifice Chords & Tabs

Santana Chords & Tabs

Version: 1 Type: Bass Tab 0 ratings
1 star 2 stars 3 stars 4 stars 5 stars
comments

Soul Sacrifice Bass Tab

Soul Sacrifice (Woodstock) - Santana

  intro (x2)                          "Moonflower" version intro (x2)
G|------------------------------------|--------------------------------|
D|----7-5--3--2-------7-5--3--2-------|---75-4h5p443-----75-4h5p4-3h4p3|
A|--------5--4--53--------5--4--53----|-------------53-----------------|
E|3/5-------------3/5-------------3/5-|35-------------35---------------|

  bridge (used after drum solo)                        verse 1 riff
G|-----------------------------------------------------|---------|
D|---------------------------------------77--77--77--77|---------|
A|---45-3-------45-3--------3-3-5--3-3-----------------|7--45/75-|
E|555-----5--555-----5--55-5----------055--55--55--55--|--5------|

  bongo solo                          no bass during drum solo
G|----------------------------------|
D|----------------------------------|
A|---------------------------simile-|
E|5-3-5--5-3-5--5-3-5--5-3-5--------|
[ Tab from: http://www.guitartabs.cc/tabs/s/santana/soul_sacrifice_btab.html ]
verse 2 riff organ solo riff
G|---------|----------|
D|-------7-|---------7|
A|---475--7|---475-/7-|
E|5-5------|5-5-------|

post organ solo riff        that ends like this
G|------------|            G|---------------------------------------------------|
D|--------7---|            D|--------7-----/7-----------------------------------|
A|---4-567----|            A|---4-567-------------------------------------------|
E|5-5-5-------|            E|5-5-5------5-------55555555555555555555555555555555|

  outro
G|---------------------------------------------------------------------------------------------
D|-----------------------------------------------------------------5/7-----------7\----7\----7\
A|---45-3-------45-3--------3-3-5--3-3-----55453-----55453-----5545-----rest-----0-----0-----0-
E|555-----5--555-----5--55-5-----------55-5------55-5------55-5---------------5-----5-----5----


--------------------------|
-7-7-7-7-7777-------------|
-0-0-0-0-0000-------------|
---------------555555555--|

tabbed by Achilles (blue_sincere@hotmail.com)
Comments