Santana - Smooth Chords & Tabs

 

Smooth Chords & Tabs

Santana Chords & Tabs

Version: 2 Type: Tab 0 ratings
1 star 2 stars 3 stars 4 stars 5 stars
comments

Smooth Tab

#----------------------------------PLEASE NOTE---------------------------------#
#This file is the author's own work and represents their interpretation of the #
#song. You may only use this file for private study, scholarship, or research. #
#------------------------------------------------------------------------------##

SMOOTH - Carlos Santana & Rob Thomas

Album: Supernatural
From:  Andreas Anger 


INTRO:

E|----------------------------------------------------------------------|
B|-----8---8/10~~-9-10-12-12b13r12-10-12-13-10-10~~-------------8-------|
G|-7h9---9------------------------------------------5b7r5b7r5b7---7-5~~-|
D|----------------------------------------------------------------------|
A|----------------------------------------------------------------------|
E|----------------------------------------------------------------------|

E|-------------------------|
B|-------------------------|
G|-------------------------|
D|-10p9\7-6-6-6h7-9b10-7~~-|
A|-------------------------|
E|-------------------------|

VERSE

E|-------------------------------------------------------|
B|--------------------12h13-12-15-13---------------------|
G|-----------------------------------16-14-13-14-13-14~~-|
D|-sorry, something--------------------------------------|
A|-is missing here---------------------------------------|
E|-------------------------------------------------------|


E|------------------------|
B|-15b17-15b17-13h15-17~~-|
G|------------------------|
D|------------------------|
A|------------------------|
E|------------------------|



E|---------------------------------------------|
B|-15/17-17-15----15h17-15-13-15-15b17r15b17~~-|
G|-------------17------------------------------|
D|---------------------------------------------|
A|---------------------------------------------|
E|---------------------------------------------|

BRIDGE:

And if____

E|---------------------------------------|
B|---------------------------------------|
G|-------------------14-16-16-17p16-14~~-|
D|-12p10h12p10-12-14---------------------|
A|---------------------------------------|
E|---------------------------------------|

_________________ so smooth

E|-------12-------12-15p12------------------------------------------|
B|-15b17----15b17----------15h17-15b16-15-13-15p13-15p13-15p13------|
G|-------------------------------------------------------------14~~-|
D|------------------------------------------------------------------|
A|------------------------------------------------------------------|
E|------------------------------------------------------------------|

CHORUS

E|---------------------------------------------------------------------|
B|--------------------------------------------15b17~~-12\13-13---------|
G|-13h14~~-13-14-16-16b17r16-14-16-17-14-14~~------------------14-14~~-|
D|---------------------------------------------------------------------|
A|---------------------------------------------------------------------|
E|---------------------------------------------------------------------|

VERSE2

E|-----------|
B|-----------|
G|-7/9-7~~h9-|
D|-----------|
A|-----------|
E|-----------|


E|----------------------------------------------------|
B|-------------12-13-12---15p13-13p12h13--------------|
G|-------12-14---------------------------14~~-13/14~~-|
D|-12/14----------------------------------------------|
A|----------------------------------------------------|
E|----------------------------------------------------|


[ Tab from: http://www.guitartabs.cc/tabs/s/santana/smooth_tab_ver_2.html ]
E|---------------------------------------------|
B|-15/17-17-15----15h17-15-13-15-15b17r15b17~~-|
G|-------------17------------------------------|
D|---------------------------------------------|
A|---------------------------------------------|
E|---------------------------------------------|

BRIDGE:

And if________

E|-------------------------------------|
B|---------------12-13--15-13-15-13h15-|
G|-----------14------------------------|
D|-12-14-15----------------------------|
A|-------------------------------------|
E|-------------------------------------|

______________ so smooth

E|-------12-------12-15p12------------------------------------------|
B|-15b17----15b17----------15h17-15b16-15-13-15p13-15p13-15p13------|
G|-------------------------------------------------------------14~~-|
D|------------------------------------------------------------------|
A|------------------------------------------------------------------|
E|------------------------------------------------------------------|

CHORUS

SOLO:

E|----------------------------------------------------------------------|
B|----------------------------------------------------------------------|
G|-13h14~~-13~~-13-16b17r16-14~~-16-14-13~~----13-16-17-16-14~~-16-13~~-|
D|------------------------------------------14--------------------------|
A|----------------------------------------------------------------------|
E|----------------------------------------------------------------------|

E|--------------------------------------------------|
B|--------------------------------------------------|
G|-13-16/17-16-14h16-14-14~~------------------------|
D|---------------------------12h14-12h14-12-14-14~~-|
A|--------------------------------------------------|
E|--------------------------------------------------|

E|-15b17-15b17-17r15---------------20r19-17-17---------------------------|
B|-------------------17-15-17-17~~-------------15h17-15-17-13-15-17-15~~-|
G|-----------------------------------------------------------------------|
D|-----------------------------------------------------------------------|
A|-----------------------------------------------------------------------|
E|-----------------------------------------------------------------------|

E|----17-19-20-19-20-19-20-19-20-19-20-19-20-19-20-19-20-20b21~~-21r20-17-|
B|-17---------------------------------------------------------------------|
G|------------------------------------------------------------------------|
D|------------------------------------------------------------------------|
A|------------------------------------------------------------------------|
E|------------------------------------------------------------------------|

E|-------------/17-17-/17-17-17-17-15----------------|
B|-20b22r20b22------------------------17-15h17-15b16-|
G|---------------------------------------------------|
D|---------------------------------------------------|
A|---------------------------------------------------|
E|---------------------------------------------------|

                                   tremolo picking
E|-12h15p12------------------------------------------------------------|
B|----------15-16r15-13----13h15---------------------------------------|
G|----------------------14---------/9-/10-/11-/12-/13-/14-/15-/16-14~~-|
D|---------------------------------------------------------------------|
A|---------------------------------------------------------------------|
E|---------------------------------------------------------------------|

CHORUS

(w/improvisation)
E||----------------------------------------------------||
B||--------------------------------------------15b17~~-||
G|:-13h14~~-13-14-16-16b17r16-14-16-17-14-14~~---------:|
D||----------------------------------------------------||
A||----------------------------------------------------||
E||----------------------------------------------------||
Comments