Santana - Smooth Chords & Tabs

 

Smooth Chords & Tabs

Santana Chords & Tabs

Version: 1 Type: Tab 0 ratings
1 star 2 stars 3 stars 4 stars 5 stars
comments

Smooth Tab

Title : SMOOTH
Artist: CARLOS SANTANA (feat. ROB THOMAS)
Tab   : BJÖRN ELSNER FEBRUARY 12th 2000

Pooh, this was a lot of work ! So, here is the new Carlos Santana Song
"Smooth" from his Album "Supernatural". Enjoy it!
mail me ! Bjoern.Elsner@gmx.de

INTRO:
|--------------------------------7-7-7--------7--8------------------------|
|---------8-----10----9--10---------------10---------10----10-------------|
|---7--9-----9---------------------------------------------------7-7-7-7-7|
|-------------------------------------------------------------------------|
|-------------------------------------------------------------------------|
|-------------------------------------------------------------------------|

|-----------------------------------------|
|-8---------------------------------------|
|----7--7--5--7--5--4---------------------|
|-----------------------6--6--7--/7--7----|
|-----------------------------------------|
|-----------------------------------------|


VERSE:
|-------------------------------------------------------------------------|
|---5--------6-------3--3--3----------5------6----------------------------|
|-5-------5----------4--4--4--------5------5-----------7----7----7--------|
|------7--------6----6--6--6--6--7------7-------6------6----6----6--------|
|---------------------------------------------------------7----7----7-----|
|-------------------------------------------------------------------------| 

|-------------------------------------------------------------------------|
|-----------------------------------------5-------------------------------|
|-7------------7--7--7--------------------5------7--7--7--7--7--7--7--7--7|
|-6-----7--10-----7--7----9--6-----6---7----5----6--6--6--6--6--6--6--6--6|
|----8------------8-----8----7--7----7--------8--7--7--7--7--7--7--7--7--7|
|--------------------7----------------------------------------------------|


CHORUS:
|-------------------------------------------------------------------------|
|---5--------------------------5----------------------------5-------------|
|---5------------7--7--7--7----5----------7---9---7---------5----5---7----|
|-7---7------6---6--6--6--6--7---7-----6--6---9---6---7--7-----7-----6----|
|--------8-------7--7--7--7---------8-----7---11--7-----------------------|
|-------------------------------------------------------------------------|

|-------------------------------------------------------------------------|
|----------------3--3--1--1--0--0--------0--0--0--0--0--0-----8--8--8--8--|
|-----7------7---2--2--2--2--2--2--4--4--2--2--2--2--2--2--1--7--7--7--7--|
|-----6------6---3--3--3--3--3--3--5--5--2--2--2--2--2--2--0--6--6--6--6--|
|-7-7----7-7-----------------------5--5-----------------------7--7--7--8--|
|----------------------------------------2--2--2--2--2--2--0--------------|

            _________________________ 
	    |2 	
|-----------|--------------------------|
|-8--8------|-6------6--5--------------|
|-7--7------|-5------5--7--------------|
|-6--6------|-7------7--6--------------|
|-7--7------|-5------5--7--------------|
|-----------|--------------------------|

SOLO:
|---------------------7--7--7------7---------------7--8--7-----7----------|
|-(8)--10----9----9------------10-----10--9-----9----------10-----9-------|
|--------------------------------------------9----------------------------|
|-------------------------------------------------------------------------|
|-------------------------------------------------------------------------|
|-------------------------------------------------------------------------|
[ Tab from: http://www.guitartabs.cc/tabs/s/santana/smooth_tab.html ]
|-7--8--7-----8--7--------------------------------------------------------|
|----------8---------10--10--10^10---------------------/20--/20--20--20---|
|-----------------------------------(7)--9--(7)--9--7---------------------|
|-------------------------------------------------------------------------|
|-------------------------------------------------------------------------|
|-------------------------------------------------------------------------|

|------------------19--19--17--17----------------------20-----------------|
|-17-------17--17------------------17--19--17------17----------17---------|
|-----19---------------------------------------19----------19------19\\\\-|
|-------------------------------------------------------------------------|
|-------------------------------------------------------------------------|
|-------------------------------------------------------------------------|

|----17--19--20--19--10--19--20--19--20--19--20--19--20--19--20--19--20---|
|-17----------------------------------------------------------------------|
|-------------------------------------------------------------------------|
|-------------------------------------------------------------------------|
|-------------------------------------------------------------------------|
|-------------------------------------------------------------------------|

|-/20--20--20--20--20--20--20^20^20--20--17----20--17----------17--17--17-|
|-------------------------------------------20----------20^20-------------|
|-------------------------------------------------------------------------|
|-------------------------------------------------------------------------|
|-------------------------------------------------------------------------|
|-------------------------------------------------------------------------|

|-17--17---------17--17--17--17--17--17--17--17--17-----------------------|
|---------20^20--------------------------------------18--17------17-------|
|------------------------------------------------------------19-----19^19-|
|-------------------------------------------------------------------------|
|-------------------------------------------------------------------------|
|-------------------------------------------------------------------------|

|-----17------------------------------------------------------------------|
|-17-----20--17-----------------------------------------------------------|
|----------------19^19--17------17--19\\\\\-----9--9--9--9--9-------------|
|---------------------------19--------------------------------------------|
|-------------------------------------------------------------------------|
|-------------------------------------------------------------------------|

|-------------------------------------------------------------------------|
|-------------------------------------------------------------------------|
|-9--9--9--9--9--9--10--10--10--10--10--10--11--11--11--11--11--11--------|
|-------------------------------------------------------------------------|
|-------------------------------------------------------------------------|
|-------------------------------------------------------------------------|

|-------------------------------------------------------------------------|
|-------------------------------------------------------------------------|
|-13--13--13--13--13--13--14--14--14--14--14--15--15--16--16--16--16--16--|
|-------------------------------------------------------------------------|
|-------------------------------------------------------------------------|
|-------------------------------------------------------------------------|

|--------------------|
|--------------------|
|-17--17--17--14--14-|
|--------------------|
|--------------------|
|--------------------|
Comments