Santana - Smooth Complete Chords & Tabs

 

Smooth Complete Chords & Tabs

Santana Chords & Tabs

Version: 1 Type: Tab 2 ratings
1 star 2 stars 3 stars 4 stars 5 stars
comments

Smooth Complete Tab




                                    Smooth                                      


                                          
Carlos Santana
dardanmetushi@hotmail.com



                                                                        
E||------------------|----------------------------|--------------------|
B||------------------|----------------------------|--------------------|
G||------------------|--------------------12------|--14~---------------|
D||------------------|------------12h-14------14--|--------------------|
A||------------------|----------------------------|--------------------|
E||------------------|----------------------------|--------------------|


                                                              
----------------------------------|--------------------------|
------------12--12r-12--------12--|--13----------------------|
----13--14----------------14------|------14--14~-------------|
----------------------------------|--------------------------|
----------------------------------|--------------------------|
----------------------------------|--------------------------|


                                                                        
----------------------|---------------------|--------------------------|
-------------------8--|---------------------|--------------------------|
----7r---7r-7b--------|--7r5---5------------|----7-5/4-----------------|
----------------------|---------------------|-----------7--6/-7--9--7~-|
----------------------|---------------------|--------------------------|
----------------------|---------------------|--------------------------|
                                                                        
                                                                          
                                                             
-----------------------7--8--7--|--10--8--7---------7---------|
--------------------------------|------------10--9-----8--10~-|
-----------------5/-9-----------|-----------------------------|
-----------5--7-----------------|-----------------------------|
--------7-----------------------|-----------------------------|
--------------------------------|-----------------------------|


                                                                 
------------------|------------------|--------------------------|
------------------|------------------|------------15b-15b-13h15-|
------------------|------------------|--------------------------|
------------------|------------------|--------------------------|
------------------|------------------|--------------------------|
------------------|------------------|--------------------------|


                                                           
--------------------|
----17--------------|
--------------------|
--------------------|
--------------------|
--------------------|


                                                              
--------------------------------|----------------------------|
------------17--20h17----17-----|----------------------------|
--------19b-----------19----19b-|--17--19--19r-19b-----19/---|
--------------------------------|----------------------------|
--------------------------------|----------------------------|
--------------------------------|----------------------------|

                                                                            
                                                                  
------------------|------------------|----------------------------|
------------------|------------------|------------------------10--|
------------------|------------------|--------7--7--7--9/-10------|
------------------|------------------|----------------------------|
------------------|------------------|----------------------------|
------------------|------------------|----------------------------|


                                                             
--7--8h7---------------|--------12------12--15h12----12-----|
---------10~-----------|----15b-----15b-----------15----15r-|
-----------------------|------------------------------------|
-----------------------|------------------------------------|
-----------------------|------------------------------------|
-----------------------|------------------------------------|


                                                                           
----------------------------------|--------------------|------------------|
----13--15h13---15h13-----15h13---|--------------------|------------------|
----------------------13----------|--14~---------------|------------------|
----------------------------------|--------------------|------------------|
----------------------------------|--------------------|------------------|
----------------------------------|--------------------|------------------|


                                                                            
                                                              
--5/---------5-------|------------------|--------------------|
--6/---------6----8--|------------------|--------------------|
--5/---------5----7--|------------------|--14----------------|
--7/---------7----6--|------------------|--------------------|
--5/---------5----7--|------------------|--------------------|
---------------------|------------------|--------------------|


                                                                
----------------------------------|----------------------------|
------------12--12--12--------12--|--13--------------------15b-|
----13--14----------------14------|------14--14--14~-----------|
----------------------------------|----------------------------|
----------------------------------|----------------------------|
----------------------------------|----------------------------|


                                                                 
--------------------|------------------------|------------------|
----------------13--|--15r-13----------------|------------------|
--------------------|---------14-------------|------------------|
--------------------|------------------------|------------------|
--------------------|------------------------|------------------|
--------------------|------------------------|------------------|


                                                                                
---------------------|-------------------|------------------|------------------|
---------------------|-------------------|------------------|------------------|
--------------7/9-7--|-------------------|------------------|------------------|
---------------------|----9--------------|------------------|------------------|
---------------------|-------------------|------------------|------------------|
---------------------|-------------------|------------------|------------------|


                                                             
--------------------7--8--7--|----10-8-7------------7-------|
------------8-8-10-----------|-----------10---9--10---10~---|
----7h9-7h9------------------|------------------------------|
-----------------------------|------------------------------|
-----------------------------|------------------------------|
-----------------------------|------------------------------|


                                                                              
--------------------|------------------|------------------|------------------|
--10/---------------|------------------|------------------|------------------|
--------------------|------------------|------------------|------------------|
--------------------|------------------|------------------|------------------|
--------------------|------------------|------------------|------------------|
--------------------|------------------|------------------|------------------|


                                                  
----------------------5--|----8--7---------------|
-------------------6-----|----------9----5--9----|
-------------5--7--------|-----------------------|
----------7--------------|-----------------------|
----5--7-----------------|-----------------------|
-------------------------|-----------------------|


                                                                             
------------12--15h12----12-----|------------------------|------------------|
--------15b-----------15----15b-|--13--15r---15b---------|------------------|
--------------------------------|------------------------|------------------|
--------------------------------|------------------------|------------------|
--------------------------------|------------------------|------------------|
--------------------------------|------------------------|------------------|


                                                                            
                                                                       
------------------|--------------------7--8--|----10--8--7--8/-10------|
------------------|---------------10---------|-------------------------|
------------------|----7--9--10--------------|-------------------------|
------------------|--------------------------|-------------------------|
------------------|--------------------------|-------------------------|
------------------|--------------------------|-------------------------|


                                                                        
--------12------12--15h12----12-----|----------------------------------|
----15b-----15b-----------15----15b-|--15--13--15h13---15h13---15h13---|
------------------------------------|----------------------------------|
------------------------------------|----------------------------------|
------------------------------------|----------------------------------|
------------------------------------|----------------------------------|


                                                                     
--------------------|--------------------------|--------------------|
--------------------|--12--------------12--13--|----------------15--|
--14~---------------|--------------14----------|--------------------|
--------------------|--------------------------|--------------------|
--------------------|--------------------------|--------------------|
--------------------|--------------------------|--------------------|


                                                            
------------------------------|----------------------------|
--13h15h13--15--15------15/---|--------17b---------17------|
------------------------------|-------------19h17------17--|
------------------------------|----------------------------|
------------------------------|----------------------------|
------------------------------|----------------------------|


                                                                               
------------------------------------|--10/---------5-------|------------------|
------------------------------------|--10/---------6----6--|------------------|
--19--17--19--17h19-17~-------------|--10/---------5----7--|------------------|
--------------------------17-17-----|--10/---------7----6--|------------------|
--------------------------------19--|--------------5----7--|------------------|
------------------------------------|----------------------|------------------|


                                                                   
------------------|----------------------|------------------------|
------------------|----------------------|------------12r---------|
------------------|--14~-------------13~-|--------13----------14~-|
------------------|----------------------|------------------------|
------------------|----------------------|------------------------|
------------------|----------------------|------------------------|


                                                          
------------------------|--------------------------------|
----------------12------|----------------12--13--12------|
--------------------14--|--13~-------13--------------14~-|
------------------------|--------14----------------------|
------------------------|--------------------------------|
------------------------|--------------------------------|


                                                      
----------------------|------------------------------|
--------------12------|--------12--13--12------13-12~|
------------------13~-|--------------------12--------|
----------------------|------------------------------|
----------------------|------------------------------|
----------------------|------------------------------|


                                                      
------------------------------|----------------------|
------------------------------|----------------------|
----14~-14~-14~---------------|----------------------|
------------------14--14--12~-|----14~---14~---------|
------------------------------|----------------------|
------------------------------|----------------------|


                                                        
----------------------------|----------------19r---17--|
--20b---20b---20r---17------|----17--17~---------------|
------------------------19--|--------------------------|
----------------------------|--------------------------|
----------------------------|--------------------------|
----------------------------|--------------------------|

[ Tab from: http://www.guitartabs.cc/tabs/s/santana/smooth_complete_tab.html ]
                                                                    
--------------------------------|------------------17--19--20--19--|
--------15h17-----17---------17-|--------------17------------------|
--------------19------17--19----|--19~-----------------------------|
--------------------------------|----------------------------------|
--------------------------------|----------------------------------|
--------------------------------|----------------------------------|


                                                   
--20--19--20--19--20--19--20--19--20--19--20--19--|
--------------------------------------------------|
--------------------------------------------------|
--------------------------------------------------|
--------------------------------------------------|
--------------------------------------------------|


                                               
--20--20b-20b20b20b20b20b20r20b-20-15-17--17--|
------------------------------------------20b-|
----------------------------------------------|
----------------------------------------------|
----------------------------------------------|
----------------------------------------------|


                                               
--17-17-----17-17----17-17--------------------|
--------20b-------20b-------18--17-----17-----|
------------------------------------19----19b-|
----------------------------------------------|
----------------------------------------------|
----------------------------------------------|


                                            
-----17---------------------------12-12-12-|
--17----20h17------------------------------|
--------------19r-17----17-19/----9--9--9--|
---------------------19--------------------|
-------------------------------------------|
-------------------------------------------|


                                                                           
--12-12-12-12-12-12-13-13-13-13-13-13-14-14-14-14-14-14-15-15-15-15-15-15-|
--------------------------------------------------------------------------|
--9--9--9--9--9--9--10-10-10-10-10-10-11-11-11-11-11-11-12-12-12-12-12-12-|
--------------------------------------------------------------------------|
--------------------------------------------------------------------------|
--------------------------------------------------------------------------|


                                                                           
--16-16-16-16-16-16-17-17-17-17-17-17-19-19-19-19-19-19-20-20-20-17-17-17-|
--------------------------------------------------------------------------|
--13-13-13-13-13-13-14-14-14-14-14-14-16-16-16-16-16-16-17-17-17-14-14-14-|
--------------------------------------------------------------------------|
--------------------------------------------------------------------------|
--------------------------------------------------------------------------|


                                                                         
--------------------|--------------------------|------------------------|
--------------------|--12~-------------12--13~-|----------13~---13h-15~-|
--14~---------------|--------------14----------|------------------------|
--------------------|--------------------------|------------------------|
--------------------|--------------------------|------------------------|
--------------------|--------------------------|------------------------|


                                                    
------------------|--------------------------------|
------------------|--------17h18h17--------17------|
------------------|-----------------19-17------17--|
------------------|--------------------------------|
------------------|--------------------------------|
------------------|--------------------------------|


                                                                           
--------------------------------|--5/---------5--------|------------------|
--------------------------------|--6/---------6--------|------------------|
--19--17--19--19--17------------|--5/---------5--------|------------------|
--------------------------------|--7/---------7--------|------------------|
------------------------20-20/--|--5/---------5--------|------------------|
--------------------------------|------------------12/-|------------------|


                                                      
--------------------|--------------------------------|
--------------------|------------12--12r---------12--|
--14~---------------|----13--14--------------14------|
--------------------|--------------------------------|
--------------------|--------------------------------|
--------------------|--------------------------------|


                                                                     
----------------------------|------------------|--------------------|
--13----------------15b-----|------------------|--------------------|
------14--14~---------------|------------------|--14~---------------|
----------------------------|------------------|--------------------|
----------------------------|------------------|--------------------|
----------------------------|------------------|--------------------|


                                                                          
--------------------------------|------12--------------------------------|
------------12--12r---------12--|--13-----13-13h12-----------------------|
----13--14--------------14------|------------------14-12-14--14h--12-----|
--------------------------------|------------------------------------14--|
--------------------------------|----------------------------------------|
--------------------------------|----------------------------------------|


                                                                            
----------------------------------------|----12-12-12--12--12--12--12------|
----------------------------------------|----13-13-13--13--13--13--13--12--|
----------------------12----------------|----------------------------------|
--12h-14-14-14--12h14----12-14--14--14--|----------------------------------|
----------------------------------------|----------------------------------|
----------------------------------------|----------------------------------|


                                                                               
----------------------|----12-12-12--12--12--12--12------|--------------------|
----15~-----------15/-|----13-13-13--13--13--13--13--12--|----17~-------------|
----------------------|----------------------------------|--------------------|
----------------------|----------------------------------|--------------------|
----------------------|----------------------------------|--------------------|
----------------------|----------------------------------|--------------------|


                                                                      
------------------------------------|----------------------17-----17-|
----16--16-17---20--17------17------|--------------------------------|
------------------------19-----19r--|--19b--19-19~-----19b----19b----|
------------------------------------|--------------------------------|
------------------------------------|--------------------------------|
------------------------------------|--------------------------------|


                                                 
------17----17------17------17------17------17--|
----------------17------17------17------17------|
--19b----19b------------------------------------|
------------------------------------------------|
------------------------------------------------|
------------------------------------------------|


                                     
-----19-19~---19--19b-19b-17~-17~17~|
--17--------------------------------|
------------------------------------|
------------------------------------|
------------------------------------|
------------------------------------|


                                              
--17~-----17-17-----17-17-17-17-17--17-17-17-|
------20b-------20b--------------------------|
---------------------------------------------|
---------------------------------------------|
---------------------------------------------|
---------------------------------------------|


                                       
--17--19-19-20h17-20b-20---20-20-17~--|
--------------------------------------|
--------------------------------------|
--------------------------------------|
--------------------------------------|
--------------------------------------|


                                           
--17~-------------------------------------|
------20-17-17----------------------------|
----------------19b-19-17----17-19b-19h17-|
--------------------------19--------------|
------------------------------------------|
------------------------------------------|


                                                                
------------------------------0-8---------|--------------------|
----------------------------------10--10~-|--------------------|
--19--17--19--17--19--17--19--------------|--------------9--7--|
------------------------------------------|--------------------|
------------------------------------------|--------------------|
------------------------------------------|--------------------|


                                                         
-----------7--8--7--10--7-7-|---------------------------|
-------10-------------------|----10--10~-----10---------|
----9-----------------------|--------------------10--9h-|
----------------------------|---------------------------|
----------------------------|---------------------------|
----------------------------|---------------------------|


                                                                          
-------------------------------|---------------------------------12-12---|
---------------10--10--10--10--|-------5-6/-10-------10-12h13h15---------|
---7-9--9--9-9-----------------|--5--7---------10h12---------------------|
---------------7---7---7---7---|-----------------------------------------|
-------------------------------|-----------------------------------------|
-------------------------------|-----------------------------------------|


                                                         
--------17-19-20h19-20h19h17-20h19h17-20h19h17-20h19h17-|
----17--------------------------------------------------|
--------------------------------------------------------|
--------------------------------------------------------|
--------------------------------------------------------|
--------------------------------------------------------|


                                                                           
--20h19h17-20h19h17-20h19h17-20h19h17-20h19h17-20h19h17-20h19h17-20h19h17-|
--------------------------------------------------------------------------|
--------------------------------------------------------------------------|
--------------------------------------------------------------------------|
--------------------------------------------------------------------------|
--------------------------------------------------------------------------|


                                                          
--22h20h19-22h20h19-22h20h19-----22b---22b22b22b22b22b22b|
-----------------------------19--------------------------|
---------------------------------------------------------|
---------------------------------------------------------|
---------------------------------------------------------|
---------------------------------------------------------|


                                                                           
--22b22b22b22b22b22b22b22b22b22b22b22b22b22b22r22r22r22r22r22r22r22r22r22r|
--------------------------------------------------------------------------|
--------------------------------------------------------------------------|
--------------------------------------------------------------------------|
--------------------------------------------------------------------------|
--------------------------------------------------------------------------|


                                      
--22r22r22r22r22--22b--20-22---------|
-----------------------------22~-----|
-------------------------------------|
-------------------------------------|
-------------------------------------|
-------------------------------------|


                                           
------------------------------------------|
----20-22-22~-20-22-22--20-22-20-19h17----|
---------------------------------------19-|
------------------------------------------|
------------------------------------------|
------------------------------------------|


                                                                 
-----------------------20--20--20-17~|----------17--------------|
--17---------------------------------|---------------17-17------|
------19-17------------17--17--------|----------------------19--|
------------19-19/-------------------|--------------------------|
-------------------------------------|--------------------------|
-------------------------------------|--------------------------|


                                                                          
--------17--19h-20--19--20--19--|--17----------------|------------------||
----17--------------------------|--------------------|------------------||
--------------------------------|--------------------|------------------||
--------------------------------|--------------------|------------------||
--------------------------------|--------------------|------------------||
--------------------------------|--------------------|------------------||



Comments