Santana - She's Not There Chords & Tabs

 

She's Not There Chords & Tabs

Santana Chords & Tabs

Version: 1 Type: Tab 0 ratings
1 star 2 stars 3 stars 4 stars 5 stars
comments

She's Not There Tab

   
#----------------------------------PLEASE NOTE---------------------------------#
#This file is the author's own work and represents their interpretation of the #
#song. You may only use this file for private study, scholarship, or research. #
#------------------------------------------------------------------------------##
Santana
she's not there

intro
(keyboard)
-------10--------------------------10------10---------
----12----13--------------------12----13--------------
-12----------------10-12-----12-----------------10-12-
----------------12----------------------------12------
------------------------------------------------------
------------------------------------------------------

verse 1
(organ)

-------------------------
-3-----------------------
---5b7r6b7r6b7-6b7-6b7-3-
-------------------------
-------------------------
-------------------------
[ Tab from: http://www.guitartabs.cc/tabs/s/santana/shes_not_there_tab.html ]
verse 2          
           Gm     C         Gm       C     Gm       Eb        Gm      C    
(2)0hh
---------------------------------------------------------------------------------
---------------------------------------------------------------13b15-11-13b15-11-
-------------------------------------------3-------------------------------------
-----------------------------------------3---5-----------------------------------
-------------------------------------3h5-----------------------------------------
---------------------------------------------------------------------------------
          
Gm     C         Gm       C              Gm         Eb           G       
 
-----------------------------------------------------------------------------------------------
--------------------------------------11-------------------------16b18-16b18-------------------
---------------------------------10h2----12----------------------17b19-17b19-17-15-19b19-15h17-
---------------------------10h12---------------------------------------------------------------
-----------------------------------------------------------------------------------------------
-----------------------------------------------------------------------------------------------

(chorus)

C       Cm         Gm      
late to say---------
----------------------------------------------------
11h13p11--------------------------------------------
--------------------------------------------------8-
---------------------------------------------8------
-------------------------------8h10-10-10-10---10---
----------------------------------------------------

Dm                Gm7

-----------------------------------------------
--------------------16b18-16b18-16b18----------
--------------------17b19-17b19-17b19r17-15----
--------------------------------------------17-
-----------------------------------------------
-----------------------------------------------

C      Cm         Bb        D
---------------------------------------------------------------
---------------------------------------------------------18b22-
---------------17b19-17b19-17b19-17b19-17b19-17b19-17b19-------
---------------------------------------------------------------
---------------------------------------------------------------
---------------------------------------------------------------

bridge
                               Gm7            
----------------------------------------------------
----------------------------------------------------
----------------------------------------------------
--------------------------------------5-5-5-5-5p3---
--------------------------------------------------5-
----------------------------------------------------

      `.0 

solo
(G minor pentatonic)
----------------------------------
-16b18-16b18-16b18-16b18----------
-17b19-17b19-17b19-17b19r17-15----
-------------------------------17-
----------------------------------
----------------------------------
Comments