Santana - Se A Cabo Chords & Tabs

 

Se A Cabo Chords & Tabs

Santana Chords & Tabs

Version: 1 Type: Bass Tab 0 ratings
1 star 2 stars 3 stars 4 stars 5 stars
comments

Se A Cabo Bass Tab

Se A Cabo - Santana

bass enters after four measures

   riff 1        riff 2
G|------------|------------|
D|------------|------------|
A|8---8-6---6-|6---4-6---4-|
E|--8-----6---|--6-----4---|
[ Tab from: http://www.guitartabs.cc/tabs/s/santana/se_a_cabo_btab.html ]
riff 1 x10
riff 2 x4
riff 1 x4
riff 2 x3
                                                     (x3)       (x7)
G|---------|---1----1-3-5-31---1------|-----------|----------|---------------------------|
D|---------|3-3---3----------3---31---|-----------|----------|---------6-8---------------|
A|----44---|--------------------------|8---6-8----|8----8----|8-88-88-8----8-88-88-6-6-7-|
E|6-6---6--|--------------------------|--8-----8--|--8----8--|---------------------------|

Only bongos for two measures, then, riff 1 eleven times

   (x2)       
G|-----------|
D|-----------|
A|8--6--8-8--|
Comments