Santana - Samba Pa Ti Chords & Tabs

 

Samba Pa Ti Chords & Tabs

Santana Chords & Tabs

Version: 1 Type: Tab 2 ratings
1 star 2 stars 3 stars 4 stars 5 stars
comments

Samba Pa Ti Tab

   
0:00
               G   Bm      E
E|---------0-3---|-2h3p2---0--|
B|-----1-3-----3-|-------3----|
G|-2-4-----------|------------|
D|---------------|------------|
A|---------------|------------|
E|---------------|------------|
0:09
  Am           G   Bm           E
E|---------0-3---|-2h3p2--5-3-2-0-|
B|-----1-3-----3-|----------------|
G|-2-4-----------|----------------|
D|---------------|----------------|
A|---------------|----------------|
E|---------------|----------------|
0:20                                         
  Am        Bm             Am           Bm?
E|-7-5-3-0--5-7/10101010-|-7-5-3--3h5p3-0---|--10-|
B|-----------------------|----------------3-|-----|
G|-----------------------|------------------|-7---|
D|-----------------------|------------------|-----|
A|-----------------------|------------------|-----|
E|-----------------------|------------------|-----|
0:30
              Am   Bm          Em        D 
E|---------------|-----------|-7-55-33-0-3-5--7-10~|
B|-5p3/1-0-1h3---|---3-3/5-3-|---------------------|
G|-------------2-|-4---------|---------------------|
D|---------------|-----------|---------------------|
A|---------------|-----------|---------------------|
E|---------------|-----------|---------------------|

Santana Part

  0:50                   0:59    1:04
E|-11b12~---------------|--------13p10-------
B|-------12p10----10----|-----8--------13----
G|-------------12----12-|-7h9----------------
D|----------------------|--------------------
A|----------------------|--------------------
E|----------------------|--------------------

Oh my god.. tab the rest.. this took me fucking long time
to figure out.


[ Tab from: http://www.guitartabs.cc/tabs/s/santana/samba_pa_ti_tab.html ]
Comments