Santana - Open Invitation Chords & Tabs

 

Open Invitation Chords & Tabs

Santana Chords & Tabs

Version: 1 Type: Tab 0 ratings
1 star 2 stars 3 stars 4 stars 5 stars
comments

Open Invitation Tab

   
#----------------------------------PLEASE NOTE---------------------------------#
#This file is the author's own work and represents their interpretation of the #
#song. You may only use this file for private study, scholarship, or research. #
#------------------------------------------------------------------------------##

--------------------------------------------------------------------------------
I didn't write this tab. I just converted it from Power Tab to regular tab.
-Andy S.
--------------------------------------------------------------------------------

                                 OPEN INVITATION
                          As recorded by Carlos Santana
                       (From the 1978 Album INNER SECRETS)

Words by C. Santana, D. Lambert, B. Potter, G. Walker & D. Margen
Arranged by Same as Above

Gtr I (E A D G B E) - 'Guitar 1'
Gtr II (E A D G B E) - 'Guitar2'
Gtr III (E A D G B E) - 'Guitar Rythim'
Gtr IV (E A D G B E) - 'Untitled'

 Intro
  Moderately Q=92
  N.C.(E5)
 4/4
  Gtr III
  S S e Q  H      S S e Q  H      S S E Q  S S E Q    S S E S S E S S E Q
|---------------|---------------|-------------------|-----------------------|
|---------------|---------------|-------------------|-----------------------|
|---------------|---------------|-------------------|-----------------------|
|---------------|---------------|-------------------|-----------------------|
|-5-6-7---------|-5-6-7---------|-5-6-7----5-6-7----|-5-6-7-5-6-7-5-6-7-7\--|
|---------------|---------------|-------------------|-----------------------|


  E5     G5         A
  E E Q   E  E Q     E  E Q   S  S S S S S E
|-----------------|--------------------------|
|-----------------|--2--2--------------------|
|-4-4-------------|--2--2--------------------|
|-2-2-----5--5----|--2--2----------0---------|
|-2-2-----5--5----|--0--0-----0h=2---2p0-----|
|-0-0-----3--3----|----------------------0-3-|
|
| Gtr I
|     ~~~~~~~  ~~~~~~~~~  ~~~~~~~
| Q   Q  +E  E Q    +E  E Q  +E    E   Q
|-----------------|--------------------------|
|-----8--(8)---7--|-(7)---5--(5)-------------|
|-----------------|--------------------------|
|-----------------|--------------------------|
|-----------------|--------------------------|
|-----------------|--------------------------|
|
| Gtr II
|     ~~~~~~~  ~~~~~~~~~  ~~~~~~~
| Q   Q  +E  E Q    +E  E Q  +E    E   Q
|-----------------|--------------------------|
|-----------------|--------------------------|
|-----9--(9)---7--|-(7)---6--(6)-------------|
|-----------------|--------------------------|
|-----------------|--------------------------|
|-----------------|--------------------------|


  E5     G5          A
  E E Q   E  E  Q      E  E  Q   S  S  S  S  S  E.
|------------------|--------------------------------|
|------------------|---2--2-------------------------|
|-4-4--------------|---2--2-------------------------|
|-2-2-----5--5-----|---2--2------------0------------|
|-2-2-----5--5-----|---0--0------0h=2-----2p=0------|
|-0-0-----3--3-----|----------------------------3---|
|
|     ~~~~~~~   ~~~~~~~~~~   ~~                 ~~~
| Q   Q  +E  E  Q     +E  E  Q   S  S  S  S  S  E.
|------------------|------------------14------------|
|-----8--(8)---12--|-(12)---14--14-15----15-14-12---|
|------------------|--------------------------------|
|------------------|--------------------------------|
|------------------|--------------------------------|
|------------------|--------------------------------|
|
|     ~~~~~~~   ~~~~~~~~~~   ~~                 ~~~
| Q   Q  +E  E  Q     +E  E  Q   S  S  S  S  S  E.
|------------------|--------------------------------|
|------------------|------------------15------------|
|-----7--(7)---12--|-(12)---14--14-16----16-14-12---|
|------------------|--------------------------------|
|------------------|--------------------------------|
|------------------|--------------------------------|


   Verses (1 & 2)
    $
    E5     G5       A
    E E Q  E E Q    E E Q  S S S S S S E
||----------------|----------------------|
||o---------------|-2-2------------------|
||--4-4-----------|-2-2------------------|
||--2-2----5-5----|-2-2--------0---------|
||o-2-2----5-5----|-0-0----0h2---2p0-----|
||--0-0----3-3----|------------------0-3-|


  E5     G5       A
  E E Q  E E Q    E E Q  S S S S S E.
|---------------|----------------------||
|---------------|-2-2-----------------o||
|-4-4-----------|-2-2------------------||
|-2-2----5-5----|-2-2--------0---------||
|-2-2----5-5----|-0-0----0h2---2p0----o||
|-0-0----3-3----|------------------3---||


 Pre-Chorus (1 & 2)
  D       A                       C       G
   E Q  E  E Q             E       E Q  E  E Q             E
|-------------------------------|-------------------------------|
|--7-7-----5-5------------------|--5-5-----3-3------------------|
|--7-7-----6-6------------------|--5-5-----4-4------------------|
|--7-7-----7-7------------------|--5-5-----5-5------------------|
|--5-5-----7-7------------------|--3-3-----5-5------------------|
|----------5-5------------------|----------3-3------------------|
|
| Gtr I
|  H       Q    S     +S   S  S    H       Q    S     +S   S  S
|-------------------------------|-------------------------------|
|-------------------------------|-------------------------------|
|-14------14---16b18r(16)-14-14-|-12------12---14b16r(14)-12-12-|
|-------------------------------|-------------------------------|
|-------------------------------|-------------------------------|
|-------------------------------|-------------------------------|
|
| Gtr II
|  H       Q    S     +S   S  S    H       Q    S     +S   S  S
|-------------------------------|-------------------------------|
|-------------------------------|-------------------------------|
|--------------16b18r(16)-14-14-|--------------14b16r(14)-12-12-|
|-16------14--------------------|-14------12--------------------|
|-------------------------------|-------------------------------|
|-------------------------------|-------------------------------|


                                  To Coda
  D       A                        C         B
                                  2/4       4/4
   E Q  E  E Q             E        E Q  E    W
|-------------------------------||---------|-------||
|--7-7-----5-5------------------||--5-5----|--4----||
|--7-7-----6-6------------------||--5-5----|--4----||
|--7-7-----7-7------------------||--5-5----|--4----||
|--5-5-----7-7------------------||--3-3----|--2----||
|----------5-5------------------||---------|-------||
|
|  H       Q    S     +S   S  S     H         W
|-------------------------------||---------|-------||
|-------------------------------||---------|-------||
|-14------14---16b18r(16)-14-14-||-12------|-11----||
|-------------------------------||---------|-------||
|-------------------------------||---------|-------||
|-------------------------------||---------|-------||
|
|  H       Q    S     +S   S  S     H         W
|-------------------------------||---------|-------||
|-------------------------------||---------|-------||
|--------------16b18r(16)-14-14-||---------|-------||
|-16------14--------------------||-14------|-13----||
|-------------------------------||---------|-------||
|-------------------------------||---------|-------||


   Chorus (1)
    E5     G5       A
    E E Q  E E Q    E E Q  S S S S S S E
||----------------|----------------------|
||o---------------|-2-2------------------|
||--4-4-----------|-2-2------------------|
||--2-2----5-5----|-2-2--------0---------|
||o-2-2----5-5----|-0-0----0h2---2p0-----|
||--0-0----3-3----|------------------0-3-|


  E5     G5       A
  E E Q  E E Q    E E Q  S S S S S E.
|---------------|----------------------||
|---------------|-2-2-----------------o||
|-4-4-----------|-2-2------------------||
|-2-2----5-5----|-2-2--------0---------||
|-2-2----5-5----|-0-0----0h2---2p0----o||
|-0-0----3-3----|------------------3---||


  E5     G5         A
  E E Q   E  E Q     E  E Q   S  S S S S S E
|-----------------|--------------------------|
|-----------------|--2--2--------------------|
|-4-4-------------|--2--2--------------------|
|-2-2-----5--5----|--2--2----------0---------|
|-2-2-----5--5----|--0--0-----0h=2---2p0-----|
|-0-0-----3--3----|----------------------0-3-|
|
| Gtr I
|     ~~~~~~~  ~~~~~~~~~  ~~~~~~~
| Q   Q  +E  E Q    +E  E Q  +E    E   Q
|-----------------|--------------------------|
|-----8--(8)---7--|-(7)---5--(5)-------------|
|-----------------|--------------------------|
|-----------------|--------------------------|
|-----------------|--------------------------|
|-----------------|--------------------------|
|
| Gtr II
|     ~~~~~~~  ~~~~~~~~~  ~~~~~~~
| Q   Q  +E  E Q    +E  E Q  +E    E   Q
|-----------------|--------------------------|
|-----------------|--------------------------|
|-----9--(9)---7--|-(7)---6--(6)-------------|
|-----------------|--------------------------|
|-----------------|--------------------------|
|-----------------|--------------------------|


                                       D.S. al Coda
  E5     G5          A
  E E Q   E  E  Q      E  E  Q   S  S  S  S  S  E.
|------------------|--------------------------------|
|------------------|---2--2-------------------------|
|-4-4--------------|---2--2-------------------------|
|-2-2-----5--5-----|---2--2------------0------------|
|-2-2-----5--5-----|---0--0------0h=2-----2p=0------|
|-0-0-----3--3-----|----------------------------3---|
|
|     ~~~~~~~   ~~~~~~~~~~   ~~                 ~~~
| Q   Q  +E  E  Q     +E  E  Q   S  S  S  S  S  E.
|------------------|------------------14------------|
|-----8--(8)---12--|-(12)---14--14-15----15-14-12---|
|------------------|--------------------------------|
|------------------|--------------------------------|
|------------------|--------------------------------|
|------------------|--------------------------------|
|
|     ~~~~~~~   ~~~~~~~~~~   ~~                 ~~~
| Q   Q  +E  E  Q     +E  E  Q   S  S  S  S  S  E.
|------------------|--------------------------------|
|------------------|------------------15------------|
|-----7--(7)---12--|-(12)---14--14-16----16-14-12---|
|------------------|--------------------------------|
|------------------|--------------------------------|
|------------------|--------------------------------|


                                   Chorus (2)
  &
  B                                 E5     G5       A
  W          +H     S S S S S E.    E E Q  E E Q    E E Q  S S S S S S E
|----------|---------------------||---------------|-----------------------|
|-4--------|-(4)-----------------||---------------|-2-2-------------------|
|-4--------|-(4)-----------------||-4-4-----------|-2-2-------------------|
|-4--------|-(4)--------0--------||-2-2----5-5----|-2-2--------0----------|
|-2--------|-(2)----0h2---2p0----||-2-2----5-5----|-0-0----0h2---2p0------|
|----------|------------------3--||-0-0----3-3----|------------------0-3--|


  E5     G5       A                     E5     G5
  E E Q  E E Q    E E Q  S S S S S E.   E E Q  E E Q
|---------------|---------------------|----------------|
|---------------|-2-2-----------------|----------------|
|-4-4-----------|-2-2-----------------|-4-4------------|
|-2-2----5-5----|-2-2--------0--------|-2-2----5-5-----|
|-2-2----5-5----|-0-0----0h2---2p0----|-2-2----5-5-----|
|-0-0----3-3----|------------------3--|-0-0----3-3-----|


  A                      E5     G5       A     B7sus4
                                        2/4
  E E Q  S S S S S S E   E E Q  E E Q    E E E E
|----------------------|---------------|-------0-||
|-2-2------------------|---------------|-2-2---0-||
|-2-2------------------|-4-4-----------|-2-2---2-||
|-2-2--------0---------|-2-2----5-5----|-2-2-----||
|-0-0----0h2---2p0-----|-2-2----5-5----|-0-0---2-||
|------------------0-3-|-0-0----3-3----|---------||


 Guitar Solo
              E5      E5                       E5              E5
 4/4
  +H.       E E       Q   Q      Q        E    E   H      Q  E E
|-(0)---------------|----------------------------|---------------|
|-(0)---------------|----------------------------|---------------|
|-(2)---------9-----|-9\-----------------------9-|-------------9-|
|-------------9-----|-9\-----------------------9-|-------------9-|
|-(2)---------7-----|-7\-----------------------7-|-------------7-|
|-------------------|----------------------------|---------------|
|
| Gtr IV
|  H     Q  E E  a    Q.    S S +S   S E  S E.     Q   Q  H
|-------------------|----------------------------|---------------|
|-------------------|----------------------------|---------------|
|-------------x-(x)s|=x-----x-x-(x)\-x-x\-x-x\---|-x/------------|
|-------------x-(x)s|=x-----x-x-(x)\-x-x\-x-x\---|-x/------------|
|-------------x-(x)s|=x-----x-x-(x)\-x-x\-x-x\---|-x/------------|
|-------------x-(x)s|=x-----x-x-(x)\-x-x\-x-x\---|-x/------------|


    E5                                                                E5
    Q                 Q                   Q                 E         E
|--------------------------------------------------------------------------------|
|--------------------------------------------------------------------------------|
|---9\----------------------------------------------------------------9\---------|
|---9\----------------------------------------------------------------9\---------|
|---7\----------------------------------------------------------------7\---------|
|--------------------------------------------------------------------------------|
|
| Gtr I
|                     \1____________________/                 |
|   |-------9-------| |--------9--------| |-------9-------| |--------9---------|
| a S S S S S S S S S S   S S S S S S S S S S S S S S S S S S S S S S    S S S S
|--------------------------------------------------------------------------------|
|-3h5p3p0h3h5p3p0h3h5p3p==0h3h5p3p0h3h5p3p0h3h5p3p0h3h5p3p0h3h5p3p0h3h===5p3p0h3p|
|--------------------------------------------------------------------------------|
|--------------------------------------------------------------------------------|
|--------------------------------------------------------------------------------|
|--------------------------------------------------------------------------------|


  H             S S S    S  S   E.
|-------------------------------------|
|-------------------------------------|
|-------------------------------------|
|-------------------0-----------------|
|---------------0-2------2--0---------|
|-------------------------------3-----|
|
| E S S S S S S S S E      +S   S  E
|---0-------0-------3b5====(3)r-3--0--|
|-0---0-0-3---0-3-5-------------------|
|-------------------------------------|
|-------------------------------------|
|-------------------------------------|
|-------------------------------------|


  E5            G5
  E   E Q        E  E   Q
|---------------------------------|
|---------------------------------|
|-4---4---------------------------|
|-2---2----------5--5-------------|
|-2---2----------5--5-------------|
|-0---0----------3--3-------------|
|
| Q     E.  S   +E  E   E   +S  S
|---------------------------------|
|---------------------------------|
|-2b4---2b4-2b4-(2)-2b4-2b4r(2)p0-|
|---------------------------------|
|---------------------------------|
|---------------------------------|


  A                                        E5         G5
  E         E   Q        S  S S S S S  E   E E  Q     E E  Q
|----------------------------------------|------------------------|
|-2---------2----------------------------|------------------------|
|-2---------2----------------------------|-4-4--------------------|
|-2---------2-----------------0----------|-2-2--------5-5---------|
|-0---------0------------0h=2---2p0------|-2-2--------5-5---------|
|-----------------------------------0--3-|-0-0--------3-3---------|
|
|                                               ~~~~~~~~~~~~~~~~~
| S T   +T  S S S S S S +S  S S S S E.     Q    H          Q
|----------------------------------------|------------------------|
|----------------------------------------|-----15---------15------|
|-2-2b3r(2)p0----------------------------|-----14b16------14b16===|
|-------------2-0-2-2-2-(2)p0------------|------------------------|
|-----------------------------2-1-0------|------------------------|
|-----------------------------------3----|------------------------|


  A                                               E5               G5
   E   E     Q           S    S  S  S  S  E.      E  E     Q        E       E     Q
|-----------------------------------------------|---------------------------------------------|
|--2---2----------------------------------------|---------------------------------------------|
|--2---2----------------------------------------|-4--4----------------------------------------|
|--2---2-------------------------0--------------|-2--2--------------5-------5-----------------|
|--0---0-----------------0h===2-----2p=0--------|-2--2--------------5-------5-----------------|
|-----------------------------------------3-----|-0--0--------------3-------3-----------------|
|
|                                             ~~
|  E   E     E     E     E       S  S  S  S   E   E  E     E  E     S  E       S  S  S  E
|-----------------------------------------------|---------12-12----12-12------12-12-12-15b17==|
|-15--15----15----15----15----------------------|---15b17----15b17----15b17------15-----------|
|-14r-14b16-14b16-14b16-14b16---14-12-14-12-----|---------------------------------------------|
|--------------------------------------------14-|---------------------------------------------|
|-----------------------------------------------|---------------------------------------------|
|-----------------------------------------------|---------------------------------------------|


  A
    E        E     Q           S      S   S  S  S  S      E
|---------------------------------------------------------------|
|---2--------2--------------------------------------------------|
|---2--------2--------------------------------------------------|
|---2--------2----------------------------0---------------------|
|---0--------0-----------------0h=====2------2p=0---------------|
|--------------------------------------------------0------3-----|
|
|                     ~~~~~
|  +S   +S   S  S  S  E     S  S     +S   S  S  S  S     +S   S
|-(15)r(15)-12-12-12-------12-12----(12)-12---------------------|
|--------------------15b17----15b17r(15)----15-12-14b15r(14)----|
|-------------------------------------------------14b15r(14)-12-|
|---------------------------------------------------------------|
|---------------------------------------------------------------|
|---------------------------------------------------------------|


  E5                   G5
   E     E  Q            E      E  Q
|------------------------------------------|
|------------------------------------------|
|--4-----4---------------------------------|
|--2-----2---------------5------5----------|
|--2-----2---------------5------5----------|
|--0-----0---------------3------3----------|
|
|  S  S  E  S  S  S  S  +S   S  E  S  E  S
|------------------------------------------|
|-------------------12-(12)----12----12----|
|-14-14-12----------12-(12)----12----12----|
|----------14-12-14---------14----14----14-|
|------------------------------------------|
|------------------------------------------|


  A
   E     E     Q           S  S  S      S   S  E.
|-------------------------------------------------------||
|--2-----2----------------------------------------------||
|--2-----2----------------------------------------------||
|--2-----2-----------------------0----------------------||
|--0-----0-----------------0h=2---------2p==0-----------||
|----------------------------------------------3--------||
|
|  S  S  S  S  S  S  S  S  S  S  S     +S   S  S   S  S
|-------------12-12-12-12----12-------------------------||
|-12-12-12-12-12-12-12-12-14-12-------------------------||
|-12-12-12-12-12-12-12-12-14-12-14b16r(14)-12-----------||
|---------------------------------------------14--12----||
|----------------------------------------------------14-||
|-------------------------------------------------------||


 Pre-Chorus (3)
  D       A
   E Q  E  E Q             E
|------------------------------|
|--7-7-----5-5-----------------|
|--7-7-----6-6-----------------|
|--7-7-----7-7-----------------|
|--5-5-----7-7-----------------|
|----------5-5-----------------|
|
|  H       Q    S     +S   S S
|------------------------------|
|-15------14---15b16r(15)-14---|
|------------------------------|
|------------------------------|
|------------------------------|
|------------------------------|
|
| Gtr II
|  H       Q    S     +S   S S
|------------------------------|
|------------------------------|
|-14------14---16b18r(16)-14---|
|------------------------------|
|------------------------------|
|------------------------------|

[ Tab from: http://www.guitartabs.cc/tabs/s/santana/open_invitation_tab.html ]
  C       G                      D       A
   E Q  E  E Q             E      E Q  E  E Q             E
|------------------------------|-------------------------------|
|--5-5-----3-3-----------------|--7-7-----5-5------------------|
|--5-5-----4-4-----------------|--7-7-----6-6------------------|
|--5-5-----5-5-----------------|--7-7-----7-7------------------|
|--3-3-----5-5-----------------|--5-5-----7-7------------------|
|----------3-3-----------------|----------5-5------------------|
|
|  H       Q    S     +S   S S    H       Q    S     +S   S S
|------------------------------|-------------------------------|
|-13------12---14b15r(14)-12---|-15------14---15b16r(15)-14----|
|------------------------------|-------------------------------|
|------------------------------|-------------------------------|
|------------------------------|-------------------------------|
|------------------------------|-------------------------------|
|
|  H       Q    S     +S   S S    H       Q    S     +S   S S
|------------------------------|-------------------------------|
|------------------------------|-------------------------------|
|-12------12---14b16r(14)-12---|-14------14---16b18r(16)-14----|
|------------------------------|-------------------------------|
|------------------------------|-------------------------------|
|------------------------------|-------------------------------|


  C         B
 2/4       4/4
   E Q  E    W                               +H     S S S S S E.
|---------|-------------------------------|----------------------||
|--5-5----|--4----------------------------|--(4)-----------------||
|--5-5----|--4----------------------------|--(4)-----------------||
|--5-5----|--4----------------------------|--(4)--------0--------||
|--3-3----|--2----------------------------|--(2)----0h2---2p0----||
|---------|-------------------------------|-------------------3--||
|
|  H         S  S  S  S  S  S  S  S  H       +H     H
|---------|-------------------------------|----------------------||
|-13------|-12h13p12h13p12h13p12h13p12----|-(12)-----------------||
|---------|-------------------------------|----------------------||
|---------|-------------------------------|----------------------||
|---------|-------------------------------|----------------------||
|---------|-------------------------------|----------------------||
|
|  H         S  S  S  S  S  S  S  S  H       +H     H
|---------|-------------------------------|----------------------||
|---------|-------------------------------|----------------------||
|-12------|-11h12p11h12p11h12p11h12p11----|-(11)-----------------||
|---------|-------------------------------|----------------------||
|---------|-------------------------------|----------------------||
|---------|-------------------------------|----------------------||


   Chorus (3)
    E5     G5       A
    E E Q  E E Q    E E Q  S S S S S S E
||----------------|----------------------|
||o---------------|-2-2------------------|
||--4-4-----------|-2-2------------------|
||--2-2----5-5----|-2-2--------0---------|
||o-2-2----5-5----|-0-0----0h2---2p0-----|
||--0-0----3-3----|------------------0-3-|


  E5     G5       A
  E E Q  E E Q    E E Q  S S S S S E.
|---------------|----------------------||
|---------------|-2-2-----------------o||
|-4-4-----------|-2-2------------------||
|-2-2----5-5----|-2-2--------0---------||
|-2-2----5-5----|-0-0----0h2---2p0----o||
|-0-0----3-3----|------------------3---||


 Outro Riff
  N.C.(E5)
  S S e S S S S +S  E S +S  S E   S S e S S S S +S  E S +S  S e
|-------------------------------|-------------------------------||
|-------------------------------|-------------------------------||
|-------------------------------|-------------------------------||
|-------------------------------|-------------------7-5-(5)-----||
|-5-6-7---5-6-7-(7)-5-5-(5)-6-7-|-5-6-7---5-6-7-(7)---------5-7-||
|-------------------------------|-------------------------------||


 Outro Solo (1st Break)
  N.C.   (E5)
  S    S e S S S S +S  E S +S  S E   S S e S S S S +S  E S +S  S e
|----------------------------------|-------------------------------|
|----------------------------------|-------------------------------|
|----------------------------------|-------------------------------|
|----------------------------------|-------------------7-5-(5)-----|
|-5----6-7---5-6-7-(7)-5-5-(5)-6-7-|-5-6-7---5-6-7-(7)---------5-7-|
|----------------------------------|-------------------------------|
|
| Gtr I
|                                    ~
| W                                  W
|----------------------------------|-------------------------------|
|----------------------------------|-------------------------------|
|----------------------------------|-------------------------------|
|-2tr0-----------------------------|-2-----------------------------|
|----------------------------------|-------------------------------|
|----------------------------------|-------------------------------|


   S     S e   S   S   S     S +S   E         S +S   S     E
|-----------------------------------------------------------------|
|-----------------------------------------------------------------|
|-----------------------------------------------------------------|
|-----------------------------------------------------------------|
|--5-----6-7-------5---6-----7-(7)--5---------5-(5)--6-----7------|
|-----------------------------------------------------------------|
|
|  Q          +S   S   E        S   S   E        S   E        S
|-12---------(12)-12--12-------12--12--12-------12--12-------12---|
|-15b17======(15)-15r-15b17====15--15r-15b17====15r-15b17====15r--|
|-----------------------------------------------------------------|
|-----------------------------------------------------------------|
|-----------------------------------------------------------------|
|-----------------------------------------------------------------|


  N.C.    (E5)
   S    S e   S  S S S +S  E S +S   S     e     S   S  e       S   S       S        S  +S    E           S +S   S   E
|-------------------------------------------|--------------------------------------------------------------------------------|
|-------------------------------------------|--------------------------------------------------------------------------------|
|-------------------------------------------|--------------------------------------------------------------------------------|
|--------------------------7-5-(5)----------|--------------------------------------------------------------------------------|
|--5----6-7------5-6-7-(7)----------5-----7-|---5---6--7-----------5-------6--------7--(7)---5-----------5-(5)--6---7--------|
|-------------------------------------------|--------------------------------------------------------------------------------|
|
|             ~~~~
|                                                              |------3-------|
|  Q         +H                 S   E.         +E      E      +E      E       E        +S   +S    S      S  S  +S   S  S
|-12--------(12)---------------12--15b17====|=(15)r---15b17==(15)r---15b17---15b17====(15)-(15)r-15b17==15-15r(15)-12-12-----|
|-15b17r====(15)----------------------------|-------------------------------------------------------------------------15b17==|
|-------------------------------------------|--------------------------------------------------------------------------------|
|-------------------------------------------|--------------------------------------------------------------------------------|
|-------------------------------------------|--------------------------------------------------------------------------------|
|-------------------------------------------|--------------------------------------------------------------------------------|


    S    S      e      S    S  S  S     +S   E     S +S   S  e
|-------------------------------------------------------------------|
|-------------------------------------------------------------------|
|-------------------------------------------------------------------|
|--------------------------------------------7-----5-(5)------------|
|---5----6------7-----------5--6--7-----(7)---------------5--7------|
|-------------------------------------------------------------------|
|
|  +S    S      S  S  +S    S  S  S     +S   S  S  S  S   S  S  S
|-(12)--12-----12-12-(12)-------------------------------------------|
|-(15)r-15b17==15-15-(15)r-15-12------------------------------------|
|--------------------------------14b15r(14)-12----12-14--12----12---|
|----------------------------------------------14-----------14------|
|-------------------------------------------------------------------|
|-------------------------------------------------------------------|


   S     S   e            S    S    S     S  +S  E S  +S  S E
|-------------------------------------------------------------------|
|-------------------------------------------------------------------|
|-------------------------------------------------------------------|
|-------------------------------------------------------------------|
|--5-----6---7-----------------5----6-----7--(7)-5-5--(5)-6-7-------|
|-------------------------------------------------------------------|
|
|                                                               \2/
|  E         S    S       S   +S    E        +Q       +E.       S
|-------------------------------------------------------------------|
|-15--------15---15------15--(15)--15-------(15)-----(15)-----[15]--|
|-14b16====(14)r-14b16==(14)-(14)r-14b16====(14)-----(14)-----(14)r-|
|-------------------------------------------------------------------|
|-------------------------------------------------------------------|
|-------------------------------------------------------------------|


    S  S   e     S    S   S   S    +S  E       S  +S   S e     S  S e S S S S +S  E S +S  S E
|----------------------------------------------------------|----------------------------------|
|----------------------------------------------------------|----------------------------------|
|----------------------------------------------------------|----------------------------------|
|--------------------------------------7-------5--(5)------|----------------------------------|
|---5--6---7----------5---6---7----(7)-----------------5-7-|---5--6-7---5-6-7-(7)-5-5-(5)-6-7-|
|----------------------------------------------------------|----------------------------------|
|
|          \2/        \2/     \2/          \2/     \2/
|                                                  ~~~~~~~~~~~~~~~
|  +E     +E    +S   +E      +S    +E     +E      +Q          +W
|----------------------------------------------------------|----------------------------------|
|-(15)---(15)--(15)-(15)----(15)--(15)---(15)----(15)------|-(15)-----------------------------|
|----------------------------------------------------------|----------------------------------|
|----------------------------------------------------------|----------------------------------|
|----------------------------------------------------------|----------------------------------|
|----------------------------------------------------------|----------------------------------|


                                             Outro Solo (2d Break)
  E                                           N.C. (E5)
   S  S S  S S  S S  S S  S S  S S  S  S S    S  S  e     S  S  S  S +S   E     S  +S      S  E
|-12-12---12---12---12---12---12---12-12---||---------------------------------------------------|
|------------------------------------------||---------------------------------------------------|
|--9--9----9----9----9----9----9----9--9---||---------------------------------------------------|
|------------------------------------------||---------------------------------------------------|
|------------------------------------------||-5--6--7--------5--6--7-(7)--5-----5--(5)-----6--7-|
|------------------------------------------||---------------------------------------------------|
|
|                                                                               ~~~~~~~~~~
|  S  S S  S S  S S  S S  S S  S S  S  S S    S  S  S  S  S  S  S  S  S   S  S  S  +S      S  E
|------------------------------------------||---------------------------------------------------|
|------------------------------------------||------12-12-12-12-12-12-14--14-14------------------|
|------------------------------------------||------12-12-12-12-12-12-14--14-14-12-(12)b13----12-|
|------------------------------------------||---14----------------------------------------14----|
|--7--7----7----7----7----7----7----7--7---||---------------------------------------------------|
|------------------------------------------||---------------------------------------------------|


  (C5)
  S  S  e     S  S  S  S +S   E     S  +S        S  e
|-------------------------------------------------------------|
|-------------------------------------------------------------|
|-------------------------------------------------------------|
|-----------------------------7-----5--(5)--------------------|
|-5--6--7--------5--6--7-(7)---------------------5--7---------|
|-------------------------------------------------------------|
|
|                                   ~~~~~~~~~~~~
| S  S  S  S  S  S  S  S  S   S  S  S  +S        S  S  S
|----------------------------12-------------------------------|
|------12-12-12-12-12-12-14-----14--------------------15b17===|
|------12-12-12-12-12-12-14-----14-12-(12)b12.5----12---------|
|---14------------------------------------------14------------|
|-------------------------------------------------------------|
|-------------------------------------------------------------|


  (D5)
   S S e   S   S    S   S       +S  E       S      +S   S  E
|-------------------------------------------------------------------|
|-------------------------------------------------------------------|
|-------------------------------------------------------------------|
|-------------------------------------------------------------------|
|--5-6-7-------5----6---7-------(7)-5-------5------(5)--6--7--------|
|-------------------------------------------------------------------|
|
|                                                             ~~~~~~~
|  Q      +S   E       +S       +E     +S   S      +S   S  S  S
|---------------------------------------------------------12-12-----|
|-15r====(15)-15b17r==(15)b17==(15)r==(15)-15b17==(15)r15----15b17==|
|-------------------------------------------------------------------|
|-------------------------------------------------------------------|
|-------------------------------------------------------------------|
|-------------------------------------------------------------------|


  (B5)                                                       (E5)
    S  S e   S   S  S  S  +S   E     S     +S   S  e          S  S  e     S  S  S  S +S   E     S  +S        S  E
|------------------------------------------------------|-------------------------------------------------------------|
|------------------------------------------------------|-------------------------------------------------------------|
|------------------------------------------------------|-------------------------------------------------------------|
|------------------------------7-----5-----(5)---------|-------------------------------------------------------------|
|---5--6-7-------5--6--7--(7)-------------------5--7---|------5--6--7--------5--6--7-(7)--5-----5--(5)-------6--7----|
|------------------------------------------------------|-------------------------------------------------------------|
|
|~~~~~~~~~~~~~~~                                                                                ~~~~~~~~~~~~
|  +Q       +S   S  S  S   S   S  S  S     +S   S  S S    a   S  S  S  S  S  S  S  S  S   S  S  S  +S        S  E
|-(12)-----(12)-12-12-12--12---------------------------|-------------------------------------------------------------|
|-(15)-----(15)-15-15-15r-----15-12--------------------|-----------12-12-12-12-12-12-14--14-14-----------------------|
|-----------------------------------14b16r(14)-12------|-----------12-12-12-12-12-12-14--14-14-12-(12)b12.5----12\---|
|-------------------------------------------------14-7-|-(7)s14-14------------------------------------------14-------|
|------------------------------------------------------|-------------------------------------------------------------|
|------------------------------------------------------|-------------------------------------------------------------|


  (C5)
  S  S  e     S  S  S  S +S   E     S  +S   S  e
|------------------------------------------------------|
|------------------------------------------------------|
|------------------------------------------------------|
|-----------------------------7-----5--(5)-------------|
|-5--6--7--------5--6--7-(7)----------------5--7-------|
|------------------------------------------------------|
|
| S  S  S  S  S  S  S  S  S   S  S  S  +S   S  S  S
|----------------------------12------------------------|
|------12-12-12-12-12-12--------14---------------------|
|------12-12-12-12-12-12-14-----14-12-(12)----12-14b16-|
|---14-------------------------------------14----------|
|------------------------------------------------------|
|------------------------------------------------------|


  (D5)                                                           (B5)
    S   S  e        S  S     S  S +S     E     S     +S   S  E    S S e   S S S S +S  E   S +S   S e
|--------------------------------------------------------------|---------------------------------------|
|--------------------------------------------------------------|---------------------------------------|
|--------------------------------------------------------------|---------------------------------------|
|--------------------------------------------------------------|----------------------7---5-(5)--------|
|---5---6--7-----------5-----6--7-(7)----5-----5-----(5)--6--7-|--5-6-7-----5-6-7-(7)------------5-7---|
|--------------------------------------------------------------|---------------------------------------|
|
|  +S   S  S     S  S  S     S  S  S     S  S  S     +S   S  E    S S S S S S S S  E    S S +Q
|------------------12----------12----------12------------------|---------------------------------------|
|------12-------12----------12----------12---------------------|---------------------------------------|
|-(14)----14b16-------14b16-------14b16-------14b16-(14)-12----|--7-7-7-7-7-7-7-7--7\---4--------------|
|-----------------------------------------------------------14-|-/9-9-9-9-9-9-9-9--9\-----5-(5)\-------|
|--------------------------------------------------------------|---------------------------------------|
|--------------------------------------------------------------|---------------------------------------|


  (E5)
  S    S e S S S S +S   E      S  +S  S    E
|-----------------------------------------------|
|-----------------------------------------------|
|-----------------------------------------------|
|-----------------------------------------------|
|-5----6-7---5-6-7-(7)--5------5--(5)-6----7----|
|-----------------------------------------------|
|
| ~~~~~~~~~~~~~~~~~~~~~~
| H                +E     S   +S   S  S   +S  S
|-----------------------------------------------|
|-----------------------------------------------|
|-2b4==============(2)r---2b4-(2)--2--2b4r(2)-2-|
|-----------------------------------------------|
|-----------------------------------------------|
|-----------------------------------------------|


  (C5)                                          (D5)
  S   S e       S S S    S +S     E S +S  S e   S S e S S S S +S  E S +S  S E
|---------------------------------------------|-------------------------------|
|---------------------------------------------|-------------------------------|
|---------------------------------------------|-------------------------------|
|---------------------------------7-5-(5)-----|-------------------------------|
|-5---6-7---------5-6----7-(7)------------5-7-|-5-6-7---5-6-7-(7)-5-5-(5)-6-7-|
|---------------------------------------------|-------------------------------|
|
|                                               TP
|         |-3-|
| T T S S T T T E   E      +H                   W
|---------------------------------------------|-3S============================|
|---------------------------------------------|-3S============================|
|-4p2p0-2-4p2p0-2---0tr2---(0tr2)-------------|-------------------------------|
|---------------------------------------------|-------------------------------|
|---------------------------------------------|-------------------------------|
|---------------------------------------------|-------------------------------|


  (B5)                            (E5)
  S S e S S S S +S  E S +S  S e   S S e +S  S S S +S  E S +S  S E
|-------------------------------|---------------------------------|
|-------------------------------|---------------------------------|
|-------------------------------|---------------------------------|
|-------------------7-5-(5)-----|---------------------------------|
|-5-6-7---5-6-7-(7)---------5-7-|-5-6-7-(7)-5-6-7-(7)-5-5-(5)-6-7-|
|-------------------------------|---------------------------------|
|
| TP
| H.                     Q        S S e +S  S S S +S  E S +S  S E
|-8S====================15\-----|---------------------------------|
|-8S====================15\-----|---------------------------------|
|-------------------------------|-7-8-9-(9)-7-8-9-(9)-7-7-(7)-8-9-|
|-------------------------------|---------------------------------|
|-------------------------------|---------------------------------|
|-------------------------------|---------------------------------|


  (C5)
  S S e  S  S S S +S   E S +S  S e
|----------------------------------|
|----------------------------------|
|----------------------------------|
|----------------------7-5-(5)-----|
|-5-6-7-----5-6-7-(7)----------5-7-|
|----------------------------------|
|
| S S E +S  S S S +S   E S +S  S E
|----------------------------------|
|---------------------10-8-(8)-----|
|-7-8-9-(9)-7-8-9-(9)----------7-9-|
|----------------------------------|
|----------------------------------|
|----------------------------------|


  (D5)                              (E5)
  S S e +S  S S S +S  E S +S  S E   S S E +S   S  S  S H
|---------------------------------|-------------------------*|
|---------------------------------|-------------------------*|
|---------------------------------|-------------------------*|
|---------------------------------|-------------------------*|
|-5-6-7-(7)-5-6-7-(7)-5-5-(5)-6-7-|-5-6-7-(7)--5--6--7------*|
|---------------------------------|-------------------------*|
|
| S S e +S  S S S +S  E S +S  S E   S S E  S   S  S  S H
|---------------------------------|-----------10-11-12------*|
|---------------------------------|-------------------------*|
|-7-8-9-(9)-7-8-9-(9)-7-7-(7)-8-9-|-7-8-9-------------------*|
|---------------------------------|-------------------------*|
|---------------------------------|-------------------------*|
|---------------------------------|-------------------------*|


Duration Legend
---------------
W - whole; H - half; Q - quarter; E - 8th; S - 16th; T - 32nd; X - 64th; a - acciaccatura
+ - note tied to previous; . - note dotted; .. - note double dotted
Uncapitalized letters represent notes that are staccato (1/2 duration)
Irregular groupings are notated above the duration line
Duration letters will always appear directly above the note/fret number it represents the
duration for.  Duration letters with no fret number below them represent rests.  Multi-
bar rests are notated in the form Wxn, where n is the number of bars to rest for.  Low
melody durations appear below the staff

Tablature Legend
----------------
 h   - hammer-on
 p   - pull-off
 b   - bend
 pb  - pre-bend
 r   - bend release (if no number after the r, then release immediately)
 /\  - slide into or out of (from/to "nowhere")
 s   - legato slide
 S   - shift slide
  - natural harmonic
[n]  - artificial harmonic
n(n) - tapped harmonic
 ~   - vibrato
 tr  - trill
 T   - tap
 TP  - trem. picking
 PM  - palm muting
\n/  - tremolo bar dip; n = amount to dip
 \n  - tremolo bar down
 n/  - tremolo bar up
/n\  - tremolo bar inverted dip
 =   - hold bend; also acts as connecting device for hammers/pulls
   - volume swell (louder/softer)
 x   - on rhythm slash represents muted slash
 o   - on rhythm slash represents single note slash

Misc Legend
-----------
 |  - bar
||  - double bar
||o - repeat start
o|| - repeat end
*|  - double bar (ending)
 :  - bar (freetime)
 $  - Segno
 &  - Coda
Tempo markers -  = BPM(8/16=s8/s16), where s8 = swing 8ths, s16 = swing 16ths
Comments