Santana - Maria Maria Chords & Tabs

 

Maria Maria Chords & Tabs

Santana Chords & Tabs

Version: 3 Type: Tab 3 ratings
1 star 2 stars 3 stars 4 stars 5 stars
comments

Maria Maria Tab

From: A Arjomandi
Artis: Santana
Song: Maria Maria


h = hammer on    p = pull off
b = bend         r = release bend
\ = slide        ~ = let ring


Intro
 
Time: 

  0:04                  0:08                          0:11
e---5-7-8-7--5-5-5--------5-5-8-7-10-8-7-8-7-5-5-----------------
B-5---------------------5---------------------------------5------
G-----------------------------------------------------5-7--------
D----------------------------------------------------------------
A----------------------------------------------------------------
E----------------------------------------------------------------

  0:15
e----------------------------------------------------------------
B-----5-8-6-5-------5-555555-------------------------------------
G-5-7---------7-5-7----------------------------------------------
D----------------------------------------------------------------
A----------------------------------------------------------------
E----------------------------------------------------------------



Verse 1
 
 0:21                   0:26
e-------5-8-5----------------------------------------------------
B---5-6-------6-5-6------------5-8-6-5-6-5-----------------------
G-7------------------------5-7-------------7-5-7-----------------
D------------------------7---------------------------------------
A----------------------------------------------------------------
E----------------------------------------------------------------

  0:31                   0:35
e----------------------------------5---7---8---10-12-------------
B--------------------------------5---5---5---9-------------------
G-4-7-5-4-5-4--------------5-7-7---------------------------------
D-------------6-6/7------7---------------------------------------
A----------------------------------------------------------------
E----------------------------------------------------------------

  0:38                0:41
e-12-12-12-12-13------12-13-12-15-13-12-13-12-10-10--------------
B----------------------------------------------------------------
G----------------------------------------------------------------
D----------------------------------------------------------------
A----------------------------------------------------------------
E----------------------------------------------------------------

  0:45                           
e---5-5-7-8-7-10-8-7-8-7-5-5-------------------------------------
B-5--------------------------5-6-5---------------5-8-6-5-6-5-----
G----------------------------------4-4-5-4-5-5-7-------------7---
D----------------------------------------------------------------
A----------------------------------------------------------------
E----------------------------------------------------------------



Solo 1

  0:54 
e-(12)-12-13-12----------12-12-15-12-------------------------------
B---------------13----13-------------13----13----------------------
G------------------14-------------------14-------------------------
D----------------------------------------------------------------
A----------------------------------------------------------------
E----------------------------------------------------------------

  0:59
e-12-11-12-12/13-12----------121212-121212-12-13-12--------------
B-------------------13----13-----------------------13------------
G----------------------14-----------------------------13/14------
D----------------------------------------------------------------
A----------------------------------------------------------------
E----------------------------------------------------------------



Verse 2

  1:34                         1:39
e-----------------------------------7-7-8-8-7-10-8-7-------------
B-----5-6-5-8-8-6-6-5------------10------------------10-10-------
G-5-7-----------------7/9------9---------------------------9-----
D----------------------------------------------------------------
A----------------------------------------------------------------
E----------------------------------------------------------------

  1:44                       1:49
e-------------------------------------------7-7-8-12-------------
B-5-6-5-8-6-5-6-5------------10-----10-9-10----------------------
G-----------------7-5-4------------------------------------------
D----------------------------------------------------------------
A----------------------------------------------------------------
E----------------------------------------------------------------

  1:53
e-10-10-5-5-----------------5-5/10-10----------------------------
B-----------6-------5-6-5-6--------------------------------------
G-------------7-5-7----------------------------------------------
D----------------------------------------------------------------
A----------------------------------------------------------------
E----------------------------------------------------------------

  1:58
e-12-15-15-13-12-10----10-12-12----------------------------------
B-------------------13----------13-10----------------------------
G----------------------------------------------------------------
D----------------------------------------------------------------
A----------------------------------------------------------------
E----------------------------------------------------------------
[ Tab from: http://www.guitartabs.cc/tabs/s/santana/maria_maria_tab_ver_3.html ]
  2:03
e---7-10-8-7-8-7-8-7----7----------------------------------------
B-8------------------10------------------------------------------
G----------------------------------------------------------------
D----------------------------------------------------------------
A----------------------------------------------------------------
E----------------------------------------------------------------



Solo 2
  
  2:07
e-12-12-13-12----------12-11-12-12/13-12-------------------------
B-------------13----13-------------------13----13----------------
G----------------14-------------------------14-------------------
D----------------------------------------------------------------
A----------------------------------------------------------------
E----------------------------------------------------------------

  2:12
e-12-11-12-12-15-12----------121212-121212-12-13-12--------------
B-------------------13----13------------------------13-----------
G----------------------14------------------------------13/14-----
D----------------------------------------------------------------
A----------------------------------------------------------------
E----------------------------------------------------------------



Verse 3

 2:58                  3:01
e----------------------------------------------------------------
B----------------------5-6-5-------5-------55-----5--------------
G-5-5-5-5-4---4-7------------7-5-7---7-5-4----5-4---55-----------
D-----------7----------------------------------------------------
A----------------------------------------------------------------
E----------------------------------------------------------------

  3:06                           3:10
e-------5-7-8-7-5------------------------------------------------
B-----5-----------5-5-5---8------888-8-6-5---5--------5----------
G---5-------------------7------------------7----7-5-7---7-5-4----
D-7--------------------------------------------------------------
A----------------------------------------------------------------
E----------------------------------------------------------------

  3:14                                 3:19
e-55-77-88-10-10-10-10-12------12~------10-12-10-8-10-------------
B----------------------------------------------------------------
G----------------------------------------------------------------
D----------------------------------------------------------------
A----------------------------------------------------------------
E----------------------------------------------------------------

  3:22
e-------12-------12-------12-12-12-8-8---------------------------
B----13-------13-------13--------------10-------5----------------
G-14-------14-------14--------------------7-5-7------------------
D----------------------------------------------------------------
A----------------------------------------------------------------
E----------------------------------------------------------------


  3:27
e-7-8-7----------------------------------------------------------
B-------8---------5----------------------------------------------
G---------9-7-5-7---7--------------------------------------------
D----------------------------------------------------------------
A----------------------------------------------------------------
E----------------------------------------------------------------


(El.guitar)
  3:31
e-------12-12-------12-12-------12-12-12-12-12-(12)-(12)---------
B----13----------13----------13----------------------------------
G-14----------14----------14-------------------------------------
D----------------------------------------------------------------
A----------------------------------------------------------------
E----------------------------------------------------------------

  3:36
e-15b-15b-15b-----131212131215131213121312--------------------------
B--------------------------------------1312151312131213121012----
G----------------------------------------------------------------
D----------------------------------------------------------------
A----------------------------------------------------------------
E----------------------------------------------------------------

  3:46
e----------------------------------------------------------------
B-------------12-13-12-15-13-12-13-12-13-12----------------------
G-------12-14-------------------------------14-12-14-------------
D-12-14----------------------------------------------------------
A----------------------------------------------------------------
E----------------------------------------------------------------

Solo 3 - outro

  3:51
e-12-13-12----------12-15-12----------12-11-12-12-13-12----------
B----------13----13----------13----13-------------------13----13-
G-------------14----------------14-------------------------14----
D----------------------------------------------------------------
A----------------------------------------------------------------
E----------------------------------------------------------------


e-12-11-12-12-15-12----------------12-12-------12-12-------------
B-------------------13----13----13-------13----------13----------
G----------------------14----14-------------14----------14-------
D----------------------------------------------------------------
A----------------------------------------------------------------
E----------------------------------------------------------------


e---------12-12-13-12--------------------------------------------
B------13-------------13-----------------------------------------
G-1414-------------------14--------------------------------------
D----------------------------Fade out----------------------------
A----------------------------------------------------------------
E----------------------------------------------------------------


Comments