Santana - Maria Maria Chords & Tabs

 

Maria Maria Chords & Tabs

Santana Chords & Tabs

Version: 1 Type: Tab 0 ratings
1 star 2 stars 3 stars 4 stars 5 stars
comments

Maria Maria Tab

Artist: Santana
Song: Maria Maria
Album: Supernatural
NOTE: I've searched for this Tab on the guitartab universe-
      but there was only the solo riff tabbed.and this in 
      5 different guitarttabfiles.So i decidet to search any
      where depp in the net-and I found this wonderful tab.
      It has all guitars included(also the fine acoustic one) 
      and it's 100% correct(cuz its tabbed with the tab book)
      So here is it-tabbed by someone unknown-subbmitted
      by jimmie-page@gmx.de


First Verse: Acoustic 
e------7-8-7-7--/-------7-8-7-8-9-8-7-8-7-8-7-------/------- 
B---10----------/----10-----------------------10-10-/-----5- 
G-9-------------/--9--------------------------------/-5-7--- 
D-----------------------------------------------------------
A-----------------------------------------------------------
E-----------------------------------------------------------


e----------------------------/-------------5-8-5------------ 
B-----5-8-6-5-------5--------/---------5-6-------6-5---5-6-- 
G-5-7---------7-5-7----------/-------7---------------7------ 
D-----------------------------------------------------------
A-----------------------------------------------------------
E-----------------------------------------------------------

e----------------------------/------------------------------ 
B-------5-8-6-5-6-5---5------/------------------------------ 
G---5-7-------------7--------/-----------4-7-5-4-5-4-5-4---- 
D-7--------------------------/------------------------------ 
A-----------------------------------------------------------
E-----------------------------------------------------------

e-------5---7---8---10-12-12-12-13/12-13-12-15-13-12-12-13-- 
B-----5---5---5---5---------------/-----------------------15 
G-5-7-----------------------------/------------------------- 
D-----------------------------------------------------------
A-----------------------------------------------------------
E-----------------------------------------------------------


e-----7-8-7-10-7-8-8-7-7----/----------/-------------------- 
B---10------------------10--/----------/------5-8-6-5-6-5--- 
G-9-------------------------/--9-10-9--/--5-7-------------7- 
D-----------------------------------------------------------
A-----------------------------------------------------------
E-----------------------------------------------------------

First Chorus: Electric 
e-12------12-13-12---------12------12-17-12----------------- 
B------------------13--13-------------------13--13---------- 
G--------------------14-----------------------14------------ 
D-----------------------------------------------------------
A-----------------------------------------------------------
E-----------------------------------------------------------


e-12---12----12-13-12-------12-12-12--12-12-12--12-12---10-- 
B---15---------------13---13---13-13--13-13-----13-13-13--10 
G----------------------14----------------------------------- 
D-----------------------------------------------------------
A-----------------------------------------------------------
E-----------------------------------------------------------

Second Verse: Acoustic 
e---5---5-------------------/-----------------------5------- 
B-5---5---------------------/---------------------5--------- 
G-----------------------------------------------------------
D-----------------------------------------------------------
A-----------------------------------------------------------
E-----------------------------------------------------------


Chanting Interlude 
Third Verse: Acoustic 
e------------------------/-----------7-7-8-8-7-10-10-8-7---- 
B-----5-6-5-8-8-6-6-5----/-----10-10---------------------10- 
G-5-7--------------------/---9------------------------------ 
D-----------------------------------------------------------
A-----------------------------------------------------------
E-----------------------------------------------------------



e---------------/---------------/-------------7-7-8-8-10-10- 
B-----6-8-8-6---/---------------/-----10-9-10--------------- 
G-7-9-----------/---9-7-9-------/--------------------------- 
D-----------------------------------------------------------
A-----------------------------------------------------------
E-----------------------------------------------------------


e-10-10-10--------------------------10-- 
B---------10-10-------------------10---- 
G--------------10----7---7-9-10-10------ 
D----------------------7---------------- 
A---------------------------------------
E---------------------------------------

e-12-15-15-13-12---------12-12--------- 
B----------------15-13-15-----13-10-10- 
G--------------------------------------
D--------------------------------------
A--------------------------------------
E--------------------------------------

e---7-10-8-10-8-7---7---7 
B-8--------------10---10- 
G------------------------
D------------------------
A------------------------
E------------------------

Second Chorus: Electric 
e-12------12-13-12---------12----12------12-13-12----------- 
B-----------------13----13----15-----------------13---13---- 
G--------------------14-----------------------------14------ 
D-----------------------------------------------------------
A-----------------------------------------------------------
E-----------------------------------------------------------
[ Tab from: http://www.guitartabs.cc/tabs/s/santana/maria_maria_tab.html ]
e-12---12---12-17-12-----------12-12-12-12-12-----10-------- 
B---15--------------13-----13--------13-13-13---13--10-10-13 
G-----------------------14---------------------------------- 
D-----------------------------------------------------------
A-----------------------------------------------------------
E-----------------------------------------------------------

Fourth Verse: Electric 
e---5---5---5-5 
B-5---5---5---- 
G--------------
D--------------
A--------------
E--------------

Chanting Interlude 

Fifth Verse: Acoustic 
e------------------/---------------/------------------------ 
B------------------/---------------/----5-6-5------5-------- 
G-----4-5-4-5-4----/----5-5-5-7----/----------7-5-7--------- 
D---7--------------/---------------/------------------------ 
A-7----------------/---------------/------------------------ 
E-----------------------------------------------------------

e-------------------------------5-7-8-7-5------- 
B-----5-5-----5---------------5-----------5-5-5- 
G-7-5-----5-----5-5-------4-5------------------- 
D-----------7-------7---7----------------------- 
A---------------------7------------------------- 
E-----------------------------------------------

e-----------------------------------
B---8-8-8-6-6-5---5-----/-----7----- 
G-7-------------7---7-7-/-5-7---7-7- 
D-----------------------------------
A-----------------------------------
E-----------------------------------

e---5-5-5-7-7-8-8-10-10-/-10-10-12-10---10- 
B-----------------------/-------------13--- 
G-5---------------------/------------------ 
D------------------------------------------
A------------------------------------------
E------------------------------------------

e-------12------12------12-12-12----------/--------- 
B-10-13---10-13---10-13----------13-13-10-/--------- 
G-----------------------------------------/-7-5-7-7- 
D---------------------------------------------------
A---------------------------------------------------
E---------------------------------------------------

e-7-8-7----------------- 
B-------8-5------------- 
G-----------7-7-5-7-9-7- 
D-----------------------
A-----------------------
E-----------------------

Electric: 
e------12-12-----12-12-----12-12-12---10----- 
B-10-13-----10-13-----10-13---13-13-13---10-- 
G-------------------------------------------- 
D--------------------------------------------
A--------------------------------------------
E--------------------------------------------



/..............................\(hold full bend) 
e-15bf-15-15-15-15-12-15-12---12---12-12-12-12-15-12---12-12---10------ 
B--------------------------15---15------------------15-13-13-13---10--- 
G----------------------------------------------------------------------
D----------------------------------------------------------------------
A----------------------------------------------------------------------
E----------------------------------------------------------------------

e--------------------12------------------------ 
B------12-13-12-15-12---15-13-12-13-12--------- 
G-12-14-------------------------------14-12-14- 
D----------------------------------------------
A----------------------------------------------
E----------------------------------------------

Third Chorus: Electric 
e-12-------13-12---------12------12-13-12------------- 
B---------------13---13--------------------13---13---- 
G-----------------14-------------------------14------- 
D-----------------------------------------------------
A-----------------------------------------------------
E-----------------------------------------------------

e-12----12------12-13-12--------12---12---12-17-12----------
B----15-----------------13---13---15---------------13---13--
G--------------------------14-------------------------14----
D-----------------------------------------------------------
A-----------------------------------------------------------
E-----------------------------------------------------------

Outro: Electric (fading out) 
e-----12-12--------12-12-12--------------------------------- 
B---13-----13--------------13--------13---------------------
G-----------------------------------------------------------
D-----------------------------------------------------------
A-----------------------------------------------------------
E-----------------------------------------------------------

e-----------------------------------------------------------
B-----------------------------------------------------------
G-14---------14--------------14-14-14----------------------- 
D-----------------------------------------------------------
A-----------------------------------------------------------
E-----------------------------------------------------------


e-12------12-13-12---------12---12-----12-17-12------------- 
B------------------13--13----15----------------13---13------ 
G--------------------14--------------------------14--------- 
D-----------------------------------------------------------
A-----------------------------------------------------------
E-----------------------------------------------------------

e-12------12-13-12---------12---12-----12-17-12------------- 
B------------------13--13----15----------------13---13------ 
G--------------------14--------------------------14--------- 
D-----------------------------------------------------------
A-----------------------------------------------------------
E-----------------------------------------------------------

Acoustic (simultaneously): 
e---------10-12- 
B-13-12-13------ 
G---------------
D---------------
A---------------
E----------------

Comments