Santana - Europa Chords & Tabs

 

Europa Chords & Tabs

Santana Chords & Tabs

Version: 2 Type: Tab 0 ratings
1 star 2 stars 3 stars 4 stars 5 stars
comments

Europa Tab

ARTIST: SANTANA, CARLOS
SONG: EUROPA               BY:    J-DALINKWINT@YAHOO.COM


------5------7------7h8------5-------------------------------------
--5--------------------------------5h6-----------------------------
-------------------------------------------------------------------
-------------------------------------------------------------------
-------------------------------------------------------------------
-------------------------------------------------------------------

------3------5------5h7------5-------------------------------------
-----------------------------------3h5-----------------------------
-------------------------------------------------------------------
-------------------------------------------------------------------
-------------------------------------------------------------------
-------------------------------------------------------------------
[ Tab from: http://www.guitartabs.cc/tabs/s/santana/europa_tab_ver_2.html ]
------1------3------3h5------3-------------------------------------
-----------------------------------1h3-----------------------------
-------------------------------------------------------------------
-------------------------------------------------------------------
-------------------------------------------------------------------
-------------------------------------------------------------------

-------------------------------------------------------------------
------1------3------3h5------3-------------------------------------
-----------------------------------1h2-----------------------------
-------------------------------------------------------------------
-------------------------------------------------------------------
-------------------------------------------------------------------

(above x2)

------5------12------13--------------------------------------------
--5----------------------------------------------------------------
-------------------------------------------------------------------
-------------------------------------------------------------------
-------------------------------------------------------------------
-------------------------------------------------------------------


if u have any corrections please mail me :)

this is what i have for the moment




Comments