Santana - El Farol Chords & Tabs

 

El Farol Chords & Tabs

Santana Chords & Tabs

Version: 4 Type: Tab 0 ratings
1 star 2 stars 3 stars 4 stars 5 stars
comments

El Farol Tab

El Farol
                                                                                       
E||--------4-5h4------------|----------------4-5-4-5-|--4-5h4-------------------------|
B||----5-6-------6h5--------|------------5-6---------|--------6-5-6-5h6h5-----5-------|
G||-------------------------|------------------------|----------------------7---7--5--|
D||-------------------------|------------------------|--------------------------------|
A||-------------------------|------------------------|--------------------------------|
E||-------------------------|------------------------|--------------------------------|


                                                                                               
--------------------|------||---8-------------------|--------------8--7--|--------------------|
--------------------|------||-----------------------|--------------------|--------------------|
-------------5------|------||*---------------9--10--|--------------------|--------------7--9--|
----------7---------|------||*----------------------|--------------------|--------------------|
--------------------|------||-----------------------|--------------------|--------------------|
--------------------|------||-----------------------|--------------------|--------------------|


                                                                                                 
------------------|-----------------------|------------------------|----------------------------|
------------------|--10-------------------|--------------------10--|--9-------------------------|
------------------|--------------------7--|-------------7--10------|-------10--9----7--------7--|
------------------|----------------10-----|----------9-------------|---------------------10-----|
------------------|-----------------------|------------------------|----------------------------|
------------------|-----------------------|------------------------|----------------------------|


                                                                                          
---------------------|--8-------------------|----------------8--7--|---------------------|
---------------------|----------------------|----------------------|---------------8-----|
--9-7-9--------------|---------------9--10--|------------10--------|------------7-----7--|
---------------------|----------------------|----------------------|---------------------|
---------------------|----------------------|----------------------|---------------------|
---------------------|----------------------|----------------------|---------------------|


                                                                       
---------------------|-----------------------|------------------------|
---------------------|--10~------------------|--------------------10--|
---9---9--9~---------|--------------------7--|-------------7--10------|
---------------------|----------------10-----|----------9-------------|
---------------------|-----------------------|------------------------|
---------------------|-----------------------|------------------------|


                                                                               
--------------------------------|---------------------|-----------------------|
--9h10h9------------------------|---------------------|-----------------5-----|
-----------10--9----7--------7--|--9-7-9~-------------|-----------5--------7--|
-------------------------10-----|---------------------|--------7-----7--------|
--------------------------------|---------------------|-----------------------|
--------------------------------|---------------------|-----------------------|


                                                                                               
---------------------|------------------------|-----------------------|-----------------------|
---------6----8------|--5---------------5-----|-----------------------|-----------5-----5-----|
----7----------------|------------5--7-----7--|----7---------7--5--5--|--------5-----5-----7--|
---------------------|---------7--------------|---------9-------------|-----------------------|
---------------------|------------------------|-----------------------|-----------------------|
---------------------|------------------------|-----------------------|-----------------------|


                                                                                                   
-----------------------|------------------------|-----------------------|-------------------------|
----5----6----8----5---|--5---------------------|-----------------------|-------------------------|
---------------------7-|------------5--7--9--7--|-----------------------|-------------------------|
-----------------------|---------7--------------|----9----6-------9--7--|----6--7--9----7--9--10--|
-----------------------|------------------------|--------------7--------|-------------------------|
-----------------------|------------------------|-----------------------|-------------------------|


                                                                                                
--------------------------|----------------------|--------------------||-----------------------|
--------------------------|------------8---------|--------------------||-----------------5-----|
-----------7--------7--9--|---------------10--9--|----------------9/-*||-----------5--7-----7--|
----9--10-------10--------|----------------------|-------------------*||--------7--------------|
--------------------------|----------------------|--------------------||-----------------------|
--------------------------|----------------------|--------------------||-----------------------|


                                                                                        
---------------------------5-----|-----------------------------|-----------------------|
------------5--8--6--5--6-----6--|--5h6h5---5------------5-----|-----------------------|
------5--7-----------------------|--------7--------5--7-----7--|-----------------------|
---------------------------------|--------------7--------------|----9----6-------9--7--|
---------------------------------|-----------------------------|--------------7--------|
---------------------------------|-----------------------------|-----------------------|


                                                                                                   
-------------------------|--------------------------|----------------------|-----------------7----|
-------------------------|--------------------------|------------8---------|-----------10---------|
-------------------------|-----------7--------7--9--|---------------10--9--|--------9-------------|
----6--7--9----7--9--10--|----9--10-------10--------|----------------------|----------------------|
-------------------------|--------------------------|----------------------|----------------------|
-------------------------|--------------------------|----------------------|----------------------|


                                                                                    
--8-------------------|--------------8--7--|--------------------|------------------|
----------------------|--------------------|--------------------|------------------|
---------------9--10--|--------------------|--------------7--9--|------------------|
----------------------|--------------------|--------------------|------------------|
----------------------|--------------------|--------------------|------------------|
----------------------|--------------------|--------------------|------------------|


                                                                                                    
-----------------------|------------------------|----------------------------|---------------------|
--10-------------------|--------------------10--|--9-------------------------|---------------------|
--------------------7--|-------------7--10------|-------10--9----7--------7--|--9-7-9--------------|
----------------10-----|----------9-------------|---------------------10-----|---------------------|
-----------------------|------------------------|----------------------------|---------------------|
-----------------------|------------------------|----------------------------|---------------------|


                                                                                              
------------------12-13-12-13-15-13-12-13-|--12--13--12--13------12------12------------------|
---------12-13-15-------------------------|------------------15------15------13--15--12--13--|
------14----------------------------------|--------------------------------------------------|
------14----------------------------------|--------------------------------------------------|
------------------------------------------|--------------------------------------------------|
------------------------------------------|--------------------------------------------------|


                                                                                 
----------------------------------------------|---------------------------------|
--12-13-15-13-12-13-12------------------------|---------------------------------|
------------------------14-12-----------------|--12-12-14-14-12h14h12-----------|
------------------------------12-10----10-14--|---------------------------------|
------------------------------------12--------|---------------------------------|
----------------------------------------------|---------------------------------|

[ Tab from: http://www.guitartabs.cc/tabs/s/santana/el_farol_tab_ver_4.html ]
                                                                                    
----15b-15--15---13-12---13-12--|-----13h12-------12-------------------------------|
--------------------------------|--15-------15-13----15-13-12-15-13-12-15-13-12-13h|
--------------------------------|--------------------------------------------------|
--------------------------------|--------------------------------------------------|
--------------------------------|--------------------------------------------------|
--------------------------------|--------------------------------------------------|


                                                                                  
-----------------------12/--------|------17----17----17----19----19----19----20--|
--12----------12-13-15------------|---17----17----17----17----17----17----17-----|
-----14-13-14---------------------|----------------------------------------------|
----------------------------------|----------------------------------------------|
----------------------------------|----------------------------------------------|
----------------------------------|----------------------------------------------|


                                                                                
----20b--20b--20b---20b-20r-|---20h-17----17h20h17----17-----------------------|
----------------------------|----------20----------20----20-17-----------------|
----------------------------|----------------------------------19b-19-17----17-|
----------------------------|--------------------------------------------19----|
----------------------------|--------------------------------------------------|
----------------------------|--------------------------------------------------|


                                                                                       
--------17--------------------------------------|-------------------------------------|
-----17----20-17--------------------------------|-------------------------------------|
--19b------------19b19-17-----17--19--19-17--17-|--17---------------------------------|
--------------------------19--------------------|------19-17-----------------17/-7----|
------------------------------------------------|------------17-15----15-19-----------|
------------------------------------------------|------------------17-----------------|


                                                                    
----15b-15--15---13-12~-----|----13--12--12------------12-13h12----|
----------------------------|-----------------15-13-15----------15-|
----------------------------|--------------------------------------|
----------------------------|--------------------------------------|
----------------------------|--------------------------------------|
----------------------------|--------------------------------------|


                                                                                            
-----12-----------------------------------------|----------------------12-----12-13--12-13-|
--13----15-13-12-15-13-12-13-12-13-12-13-12-13--|--13--12-13-15--13-15-----15--------------|
------------------------------------------------|------------------------------------------|
------------------------------------------------|------------------------------------------|
------------------------------------------------|------------------------------------------|
------------------------------------------------|------------------------------------------|


                                                                                        
--12--8--8--8~------------|--------------8--7--|--------------------|------------------|
--------------------------|--------------------|--------------------|------------------|
-------------------9--10--|--------------------|--------------7--9--|------------------|
--------------------------|--------------------|--------------------|------------------|
--------------------------|--------------------|--------------------|------------------|
--------------------------|--------------------|--------------------|------------------|


                                                                               
-----------------------|------------------------|-----------------------------|
--10-------------------|--------------------10--|--9h10h9---------------------|
--------------------7--|-------------7--10------|----------10--9----7-------7-|
----------------10-----|----------9-------------|------------------------10---|
-----------------------|------------------------|-----------------------------|
-----------------------|------------------------|-----------------------------|


                                                                                 
--------------------------------------|-----------------------------------------|
--------------------------------------|-----------------------------------------|
--9--------9--------9--------9--------|----9-------9-12-10-9----------9-------9-|
-----10-12----10-12----10-12---10-12--|------10-12-----------12-10-12---10-12---|
--------------------------------------|-----------------------------------------|
--------------------------------------|-----------------------------------------|


                                                                                             
-------------------------------------15--13--12--|--13--12--13-----12----------------12-----|
----------------10-10-12-12--13--15--------------|--------------15----15-13-12h13h15--------|
--9-10-10-12-12----------------------------------|------------------------------------------|
-------------------------------------------------|------------------------------------------|
-------------------------------------------------|------------------------------------------|
-------------------------------------------------|------------------------------------------|


                                                                                         
---------17-17--17--19--20--20--|-----20b--20b--20b--20b---|--20b---20b---20b---20b-20b-|
------17------------------------|--------------------------|----------------------------|
--------------------------------|--------------------------|----------------------------|
--------------------------------|--------------------------|----------------------------|
--------------------------------|--------------------------|----------------------------|
--------------------------------|--------------------------|----------------------------|


                                                                                        
----20-17---------------------------------|--------------------------------------------|
----------20-17---------------------17-17-|-----17-17----17-17----17-17----17-17-------|
----------------19b-19-17----17-19b-------|--19b------19b------19b------19b------19r---|
--------------------------19--------------|--------------------------------------------|
------------------------------------------|--------------------------------------------|
------------------------------------------|--------------------------------------------|


                                                                                                  
------------------------------------------|------------------------------------------------------|
------------------------------20--18--17--|--18--17h18h17-----17-------------17------------------|
------19--17--19--17--19--17--------------|---------------19------19--17--19----19-17-16h17h16/--|
------------------------------------------|------------------------------------------------------|
------------------------------------------|------------------------------------------------------|
------------------------------------------|------------------------------------------------------|


                                                                           
------------------------------------------|-------------------------------|
------15-13-12-13-12----------------------|-------------------------------|
---------------------14-12----------------|------12--12--12--12--12/-5----|
---------------------------12-10----10-12/|--14---------------------------|
---------------------------------12-------|-------------------------------|
------------------------------------------|-------------------------------|


                                                                
----17--15--15--------------|----13--12--12-----------------12-|
-----------------18-17------|-----------------15-15---13-15----|
----------------------------|----------------------------------|
----------------------------|----------------------------------|
----------------------------|----------------------------------|
----------------------------|----------------------------------|


                                                                                      
-----------12-15-13-12----------12----------------|----------------------------------|
--15-13-15-------------15-13-15----15-13-12-13-12-|--13--12--12------------------12--|
--------------------------------------------------|--------------14--14------14------|
--------------------------------------------------|----------------------14----------|
--------------------------------------------------|----------------------------------|
--------------------------------------------------|----------------------------------|


                      
--------------------||
--13----------------||
--------------------||
--------------------||
--------------------||
--------------------||


Comments