Santana - El Farol Chords & Tabs

 

El Farol Chords & Tabs

Santana Chords & Tabs

Version: 2 Type: Tab 0 ratings
1 star 2 stars 3 stars 4 stars 5 stars
comments

El Farol Tab

intro....acustic

e ---------------------------|-------------------------------------------------
B ----------8-10-8--------|----------8-10-8-10-8-10-8-----------------
G ---9-10-----------10-9-|---9-10------------------------10-9h10p9---
D --------------------------|-------------------------------------------------
A --------------------------|-------------------------------------------------
E --------------------------|-------------------------------------------------

e ------------------
B -----------------
G --7-7h9p7-5--
D -----------------
A -----------------
E -----------------

FILL I:
e ---8-----------8-7----------5----------------------------------------------
B --------------------------------------------------6-10-9-7----------------
G --------9-10-------7h9------5-7--7\4-4-7---------------9-7-5-7-9-7-9
D -----------------------------------------------------------------------------
A -----------------------------------------------------------------------------
E -----------------------------------------------------------------------------

FILL II:

e ---8---------------8-7----8-----------5------------------------------------
B -----------------------------------------------------------6-10-9-7--------
G --------9-10-10------7---9-9-9-9----5-7--7\4-4-7--------------9-7---
D -----------------------------------------------------------------------------
A ----------------------------------------------------------------------------
E -----------------------------------------------------------------------------

FILL III:
e -----------------------------------------------------------------------------
B ----------------------------------------------------------------------------
G ----9---9-7-7--10-10\12-9------5-7-9-7-4-2-4-2-------------------
D --7--7---------------------------7----------------------------------------
A ----------------------------------------------------------------------------
E ----------------------------------------------------------------------------

e -----------------------------------------------------------------------------
B ----------------------------------------------------------------------------
G ----9---9-7-9--10-10\12-9------5-7-9-7-4-1----2h4-2-1-2-4-2-4-
D --7--7---------------------------7-----------------2-----------------------
A ----------------------------------------------------------------------------
E ----------------------------------------------------------------------------

e -----------------------------------------------------------------------------
B ----------------------------------------------------------------------------
G -5--4-5-7--5-7-9--12-10-9^-------------------------------------------
D ----------------------------------------------------------------------------
A ----------------------------------------------------------------------------
E ----------------------------------------------------------------------------

*Do fill I and II once through again, then:
[ Tab from: http://www.guitartabs.cc/tabs/s/santana/el_farol_tab_ver_2.html ]
e -----------------------------------------------------------------------------
B ----------------------------------------------------------------------------
G ----9---9-7-7--10-10\12-9------5-7-9-7-4-1--4-2------------------
D --7--7---------------------------7----------------2-----------------------
A ----------------------------------------------------------------------------
E ----------------------------------------------------------------------------

e -----------------------------------------------------------------------------
B ----------------------------------------------------------------------------
G ----9---9-7-9--10-10\12-9-7-9-----5-7-9-7-4-1---4-2--------------
D --7--7--------------------------------7----------------2------------------
A ----------------------------------------------------------------------------
E ----------------------------------------------------------------------------

*man I love this part
e -----------------------------------------------------------------------------
B --------------------4-6-4-------10-8-------------------------------------
G ---5-7-9-7--5-7----------9-7--------5-7-9-7-9------------------------
D -7--------------------------------------------------------------------------
A ----------------------------------------------------------------------------
E ----------------------------------------------------------------------------

e -----------------------------------------------------------------------------
B ----------------------------------------------------------------------------
G ----5-7-9-7-4-1----2h4-2-1-2-4-2-4-5--4-5-7--5-7-9--12-10-9-
D -7-----------------2-------------------------------------------------------
A ----------------------------------------------------------------------------
E ----------------------------------------------------------------------------

e ----5-7-8--------8-7---------5-----------------------------------------
B ---------------------------------------------------6-10-9-7----------------
G -----------9-10-------7h9------5-7--7\4-4-7---------------9-7-5-7-9-
D -9--------------------------------------------------------------------------
A -----------------------------------------------------------------------------
E -----------------------------------------------------------------------------

e -----------------------------------------------------------------------------
B -----------------------------------------------------------------------------
G -7-9------------------------------------------------------------------------
D -----------------------------------------------------------------------------
A -----------------------------------------------------------------------------
E -----------------------------------------------------------------------------

SOLO:
I AM NOT SURE OF THE SOLO, THE STUFF I HAVE I SAW PLAYED AND IS AT THE BEGINING OF THE SOLO. I AM STILL DEBATING THE REST......
e ------------12-15-12-15-12-15-13-15-12-15-12-13-----------------
B -----------------------------------------------------------------------------
G -----------------------------------------------------------------------------
D -----------------------------------------------------------------------------
A -----------------------------------------------------------------------------
E -----------------------------------------------------------------------------


Comments