Santana - El Farol Complete Chords & Tabs

 

El Farol Complete Chords & Tabs

Santana Chords & Tabs

Version: 1 Type: Tab 0 ratings
1 star 2 stars 3 stars 4 stars 5 stars
comments

El Farol Complete Tab

   
El Farol
Carlos Santana
Transcripción: Francisco J. Ramírez

Tambor: tu tu tu TAC     ta ta

Guitarra Clásica
  0:08                  0:012
e |--------------------|------------------------------------------------|
B |-------9h10p9-------|-------9h10--9h10--9h10p9-----------------------|
G |-9h10----------10p9-|-9h10---------------------9h10--9h10p9--7h9p7-5-|
D |--------------------|------------------------------------------------|
A |--------------------|------------------------------------------------|
E |--------------------|------------------------------------------------|

Guitarra Eléctrica
RIFF 01 
  0:18
e |-8-----------8-7--------|---------------------------------------------|
B |------------------------|-10-------------------10-9-------------------|
G |------9-10---------7-9--|--------7------7--10-------10-9-7----7-9-7h9-|
D |------------------------|-----10------9--------------------10---------|
A |------------------------|---------------------------------------------|
E |------------------------|---------------------------------------------|

  0:36
e |-8-------------8-7---------------|---------------------------------------------|
B |-----------------------8---------|-10--------------10-9h10p9-------------------|
G |------9-10-10--------7---7-9-9-9-|-------7----7-10-----------10-9-7----7-9-7-9-|
D |---------------------------------|----10---10-----------------------10---------|
A |---------------------------------|---------------------------------------------|
E |---------------------------------|---------------------------------------------|

RIFF 02
  0:56
e |----------------------|----------------------|
B |------------------8---|----------------------|
G |----9----9-7-7-10---9-|------7-9-7-7---7-----|
D |-10---10--------------|-7-10---------9---10--|
A |----------------------|----------------------|
E |----------------------|----------------------|


RIFF 03                                         RIFF 04
  1:05                                         1:13
E |--------------------------------------------|----------------------------------------|
B |------------------8-------------------------|--------------------------------8-------|
G |----9----9-7-9-10---9h7p9-------7-9-7-------|-----------------------7----7-9----10-9-|
D |-10---10-------------------7-10-------9-6---|-9-7-6-7-9-7-9-10-9-10---10-------------|
A |------------------------------------------7-|----------------------------------------|
E |--------------------------------------------|----------------------------------------|


RIFF 01 MODIFICADO 01
  1:23
e |-8-----------8-7---------|---------------------------------------------|
B |-------------------------|-10-------------------10-9-------------------|
G |------9-10---------7-9-9-|--------7------7--10-------10-9-7----7-9-7-9-|
D |-------------------------|-----10------9--------------------10---------|
A |-------------------------|---------------------------------------------|
E |-------------------------|---------------------------------------------|

  1:40
e |-8-----------8-7---------------|-------------------------------------------|
B |---------------------8---------|-10--------------10-9----------------------|
G |------9-10---------7---7-9-9-9-|-------7----7-10------10-7h9--7----7-9-7-9-|
D |-------------------------------|----10----9---------------------10---------|
A |-------------------------------|-------------------------------------------|
E |-------------------------------|-------------------------------------------|


RIFF 05                                      RIFF 06
  2:00                                      2:10
e |-----------------------------------------|----------------------------------------------|
B |-----------------8-----------------------|------------------8---------------------------|
G |----9---9-7-7-10---9------7-9-7----------|----9----9-7-9-10---9h7p9------7-9-7----------|
D |-10---10-------------7-10-------9----9-7-|-10---10------------------7-10-------9----9-7-|
A |----------------------------------10-----|---------------------------------------10-----|
E |-----------------------------------------|----------------------------------------------|
 
RIFF 07                                     RIFF 08
  2:20                                          
e |---------------------------------------------|------------------------------------------------|
B |---------------8-----------------------------|-------------------7---------9------------------|
G |----9---9-7-10---9p7h9------7-9-7------------|------7-9-7----7-9---10-9-15---10-9h10p14p12h14-|
D |-10---10---------------7-10--------9-6---9-7-|-7-10-------10----------------------------------|
A |---------------------------------------7-----|------------------------------------------------|
E |---------------------------------------------|------------------------------------------------|


RIFF 09                                               RIFF 10
  2:26                                                2:35
e |------------------------------------------------7-|-8------8-7--------|
B |------------------------------------8--------10---|-------------------|
G |---------------------------7----7-9---10-9-9------|---9-10------7-9-9-|
D |-9-6---9-6-7-9-7-9-10-9-10---10-------------------|-------------------|
A |-----7--------------------------------------------|-------------------|
E |--------------------------------------------------|-------------------|


RIFF 11
  2:45
e |-------------------------------------------------|
B |-10----------------10-9h10p9---------------------|
G |----------7---7-10-----------10-7-9-7----7-9-7-9-|
D |------10----9-------------------------10---------|
A |-------------------------------------------------|
E |-------------------------------------------------|


Solo - I –
  2:55
e |-7-8-10-12-13-13-13-15-13-12-13-12-13-12-13-10-12-10-12-8-10-8-7-8-7-8-8p7-|
B |---------------------------------------------------------------------------|
G |---------------------------------------------------------------------------|
D |---------------------------------------------------------------------------|
A |---------------------------------------------------------------------------|
E |---------------------------------------------------------------------------|
[ Tab from: http://www.guitartabs.cc/tabs/s/santana/el_farol_complete_tab.html ]
                                         Solo – II –
                                        3:04
e |-------------------------------------|-15^-15-15-13-12-13-12-10-8-12-10-8-7-10-8-7-10-8-|
B |-10-8---------------8-8-10-10-8h10p8-|--------------------------------------------------|
G |------7---------7-9------------------|--------------------------------------------------|
D |--------10-7-10----------------------|--------------------------------------------------|
A |-------------------------------------|--------------------------------------------------|
E |-------------------------------------|--------------------------------------------------|

                                    Solo – III –
                                   3:11
e |-7-10-8-7-8p7---------7-8-10-12-|-12-17-12-17-12-17-12-19-12-19-12-19-13-20^-20^-20^-20^-r-|
B |--------------10-9-10-----------|----------------------------------------------------------|
G |--------------------------------|----------------------------------------------------------|
D |--------------------------------|----------------------------------------------------------|
A |--------------------------------|----------------------------------------------------------|
E |--------------------------------|----------------------------------------------------------|


3:16
e |-17-15-17h20p17-15-17-15-17-10-10-8----8-10-10-8-8-8----------------------|
B |------------------------------------10---------------10-8---------------8-|
G |----------------------------------------------------------7---------7-9---|
D |------------------------------------------------------------10-7-10-------|
A |--------------------------------------------------------------------------|
E |--------------------------------------------------------------------------|


Solo IV
e |----8-10-12-17-15-12-10^-10^-8----8-10-10-8-8-8-------------------|
B |-10----------------------------10---------------10-8------------8-|
G |-----------------------------------------------------7------7h9---|
D |-------------------------------------------------------10-7-------|
A |------------------------------------------------------------------|
E |------------------------------------------------------------------|


 
Solo V 
3:23
e |-15^-15-15-13-12-13-12-12-10-8-10-12-13-12-10-13-|
B |-------------------------------------------------|
G |-------------------------------------------------|
D |-------------------------------------------------|
A |-------------------------------------------------|
E |-------------------------------------------------|

Solo VI
                                                                      3:33
e |-13-10-8-7-10-8-7-8-7-8-7-8-7-8-8-7-8-10-8-10-12-10-12-13-12-13-12-|--8-8-8------8-7---|
B |-------------------------------------------------------------------|-------------------|
G |-------------------------------------------------------------------|------9-10-----7-9-|
D |-------------------------------------------------------------------|-------------------|
A |-------------------------------------------------------------------|-------------------|
E |-------------------------------------------------------------------|-------------------|

Solo VII
3:40
e |-----------------------------------------------------------------------------------------------|
B |-10-------------10-9---------------------------------------------------8-----------------------|
G |-------7---7-10------10-9-7-----7-9----7-9----7-9----7-9----7-9----7-9---10-9-7----7-9-9-10-10-|
D |----10---9-------------------10-----10-----10-----10-----10-----10--------------10-------------|
A |-----------------------------------------------------------------------------------------------|
E |-----------------------------------------------------------------------------------------------|


Solo VIII
e |-------------------8-10-12-15-13-12-13-12-13-10-12-10-8-7-8-10-12-|
B |-------10-10-12-12------------------------------------------------|
G |-12-12------------------------------------------------------------|
D |------------------------------------------------------------------|
A |------------------------------------------------------------------|
E |------------------------------------------------------------------|

Solo IX                                     Solo X
3:58
e |-12-17-17-17-19-20-19h20-20^-20^-20^-20^-|-20^-20^-20^-20^-17-15-12-10-10-8----8-10-12-12-|
B |-----------------------------------------|----------------------------------10------------|
G |-----------------------------------------|------------------------------------------------|
D |-----------------------------------------|------------------------------------------------|
A |-----------------------------------------|------------------------------------------------|
E |-----------------------------------------|------------------------------------------------|

Solo XI                                      Solo XII
4:04
e |-----12-12-12-----12-12-12-----12-12-12b*-|-10-8-10-8-10-8-15-13-12-13-13p12-10-12-10-8-10-|
B |-15^----------15^----------15^------------|--------------------------------------------|
G |------------------------------------------|--------------------------------------------|
D |------------------------------------------|--------------------------------------------|
A |------------------------------------------|------------------------------------------|
E |------------------------------------------|------------------------------------------|


Solo XIII
e |-12-10-8-7h8p7-10-8-7-8-7------------------------------|
B |--------------------------10-8---------------8-8-8-8-8-|
G |-------------------------------7---------7-9-----------|
D |---------------------------------10-7-10---------------|
A |-------------------------------------------------------|
E |-------------------------------------------------------|


Solo XIV                                           Solo XV
e |-15h17-15-15-13-12-13-13-12-10-10-8-10-12-10-8-|-10-12-15-13-12-10-8-7-8-7-8-7-7----|
B |-----------------------------------------------|---------------------------------10-|
G |-----------------------------------------------|------------------------------------|
D |-----------------------------------------------|------------------------------------|
A |-----------------------------------------------|------------------------------------|
E |-----------------------------------------------|------------------------------------|


Solo XVI
e |---------7-8-8-10-10-10-15-10-12-17-12-10-12-10-15-10-----10----|
B |-10---10----------------------------------------------13-----13-|
G |----9-----------------------------------------------------------|
D |----------------------------------------------------------------|
A |----------------------------------------------------------------|
E |----------------------------------------------------------------|
Comments