Santana - Carnaval Chords & Tabs

 

Carnaval Chords & Tabs

Santana Chords & Tabs

Version: 1 Type: Bass Tab 0 ratings
1 star 2 stars 3 stars 4 stars 5 stars
comments

Carnaval Bass Tab

Carnaval - Santana 
    bass intro w/ bongos         verse (x8)   chorus 
G|-------------------------------------|------------|---------7------------------------------------------7----- 
D|-------------------------------------|------------|---5-3-7-7--3-1-353--3-0--------5---------5-3-7-7--3- 
A|-------------------------------------|--5-3-21---|-3---------1----------0-----53--345-5--03----------1--- 
E|303-4404-303-4404-303-4404-03-|3-------2--|3-------------------------------3-------3-------------- 
[ Tab from: http://www.guitartabs.cc/tabs/s/santana/carnaval_btab.html ]
            "ahh ahhh ahhh" 
----------------------------------| 
1-353--3-0----------------------| 
-------0-----53-------------3/9\-| 
-----------------3--5--7--5------| 

   solo 
G|-------------------------------------------------------| 
D|--30------------------------543--5-3-----------------| 
A|----32----3-7-2------33032---03---54-33---333----| 
E|03----0-3-------03-33-----------------3---03--------| 

this song plays very fast--at least I think so. 
p.s. the chorus & the solo may be a little wrong...I don't have a great ear for fast notes. 

Comments