Santana - Black Magic Woman Chords & Tabs

 

Black Magic Woman Chords & Tabs

Santana Chords & Tabs

Version: 3 Type: Tab 1 rating
1 star 2 stars 3 stars 4 stars 5 stars
comments

Black Magic Woman Tab

   
#----------------------------------PLEASE NOTE---------------------------------#
#This file is the author's own work and represents their interpretation of the #
#song. You may only use this file for private study, scholarship, or research. #
#------------------------------------------------------------------------------##
Santana
Black Magic Woman
Tabber: Unknown

chords
Dm7    Am7    
10     #
10     10
10     12
10     10
12     12
10     #

intro
--------------------------------------------------------------
-------------------------------------------------10-----------
-12-10-----7-9-7-----10-12-10------12-7-9-7----------12--10-9-
--------------------------------------------------------------
--------------------------------------------------------------
--------------------------------------------------------------

----------------------------------------------------------------10-
--------------------10---------------------------------------10----
-12--10--9-7------------12--10-9------12--10--9-----------10-------
-------------------------------------------------------10----------
----------------------------------------------------12-------------
-------------------------------------------------10----------------

-10-----------------------------------------------10---------------------
----13-13b15r13p10-13b15------13p10-----13b15--------13-10---------------
-----------------------------------------------------------12b14r12p10-9-
-------------------------------------------------------------------------
-------------------------------------------------------------------------
-------------------------------------------------------------------------

----------12h13-12-13p12p10-----------------------10-------------------
----10-13-------------------13b15r13p10----13b15-----13p10-------------
-----------------------------------------------------------12b14-12p10-
-----------------------------------------------------------------------
-----------------------------------------------------------------------
-----------------------------------------------------------------------

-------10-12-13b15----15b17--13p10-13---17b20-----10-
----11-----------------------------------------------
-12--------------------------------------------------
-----------------------------------------------------
-----------------------------------------------------
-----------------------------------------------------

-------------------------------------------------------------10-
----------------10-------------------------------------------10-
-12b14r12p10h12----12-10h12p10-------------------------------10-
-------------------------------12-10-12-10-------------------10-
-------------------------------------------12-11-10----------12-
----------------------------------------------------13-13-12-10-

piano solo
Dm7

verses
        
[ Tab from: http://www.guitartabs.cc/tabs/s/santana/black_magic_woman_tab_ver_3.html ]
             Gm7
---------------------3-----3-------
-13-12-10----------3---3-6---6-5-3-
-10-10-10----3h5-3---------------3-
-10-10-10------------------------5-
-----------------------------------
-----------------------------------


     

solo
----------10-------------------------13p12p10------------------------
-13b15-------13b15----13b15r13p10-------------13b15r13p10------------
----------------------------------------------------------12b14p10-9-
---------------------------------------------------------------------
---------------------------------------------------------------------
---------------------------------------------------------------------

------------12--13p12p10-----------13b15---15b17---15p13-15b17r15p13---17b20-
------10-13--------------13b15-----------------------------------------------
-9-10------------------------------------------------------------------------
-----------------------------------------------------------------------------
-----------------------------------------------------------------------------
-----------------------------------------------------------------------------

-12-13p12p10-12h13p12p10-------10-----------------------------------------------------
-------------------------13b15----13p10----------------10-----10-13p10----------------
----------------------------------------12b14r12p10-12-10--------------12b14r12p10----
----------------------------------------------------------12-----------------------12-
--------------------------------------------------------------------------------------
--------------------------------------------------------------------------------------

----------10b12-------------------------------10------------------------
-13b15r13-------13b15-----------------13b15------13-10------------------
----------------------12b14r12b14----------------------12-12b14r12p10-9-
------------------------------------------------------------------------
------------------------------------------------------------------------
------------------------------------------------------------------------

---------------10--------------------10-------------------10-13b15----15b17-----17b20-----20b22-
----10-13b15------13b15-13b15r13p10--13b15-10-10-------11---------------------------------------
-10----------------------------------------10-10----12------------------------------------------
------------------------------------------------------------------------------------------------
------------------------------------------------------------------------------------------------
------------------------------------------------------------------------------------------------

------------10-------10---------13p10h13p10h13p10-------------------------------
---------13----10-13----10p13---------------------13p10h13p10-------------------
-12b14--------------------------------------------------------12p10h12p10-------
--------------------------------------------------------------------------12-10-
--------------------------------------------------------------------------------
--------------------------------------------------------------------------------

---------------
-----------5-6-
-------5-7-----
-5-6-7---------
---------------
---------------
Comments