Santana - Black Magic Woman Gypsy Queen Chords & Tabs

 

Black Magic Woman Gypsy Queen Chords & Tabs

Santana Chords & Tabs

Version: 1 Type: Bass Tab 0 ratings
1 star 2 stars 3 stars 4 stars 5 stars
comments

Black Magic Woman Gypsy Queen Bass Tab

Transcibed by William Fears.	
Artist: Santana.
Album: "The Best of Santana", and "Abraxas".


Intro, bass enters at 00:06
(s = slide down to fret)

|--------|--------|----------|----------|---------|
|--------|--------|----------|----------|---------|
|--------|5-------|-------12s|5---------|5-----12s|
|-------5|--------|----------|---------5|---------|


|--------|----------|--------|----------|--------|
|--------|----------|--------|----------|--------|
|5-------|5------12s|5-------|5------12s|5-------|
|-------5|----------|-------5|----------|-------5|

                     (00:29)
|----------|--------|--------|---------|--------|
|----------|--------|----55--|----55-5/|--------|
|5------12s|5------5|---5---5|---5-----|5---55--|
|----------|--------|3-------|3--------|---5---5|


                                        (00:43)
|--------|--------|---------|--------|--------|
|--------|----55--|----55-5/|--------|--------|
|5---55-5|---5---5|---5-----|5-------|5-------|
|---5----|3-------|3--------|--------|--------|
         
End of Intro


|----5575|----5575|--------|--------|----5575|
|---7----|---7----|----5575|----5575|---7----|
|5-------|5-------|---7----|---7----|5-------|
|--------|--------|5-------|5-------|--------|


|----5575|--------|--------|----5575|--------|
|---7----|----3353|----3353|---7----|----5575|
|5-------|---5----|---5----|5-------|---7----|
|--------|3-------|3-------|--------|5-------|

[ Tab from: http://www.guitartabs.cc/tabs/s/santana/black_magic_woman_gypsy_queen_btab.html ]
|----5575|----5575|--------|--------|--------|
|---7----|---7----|--------|--------|--------|
|5-------|5-------|5-------|--------|--------|
|--------|--------|--------|--------|--------|

That's pretty much the bassline for the whole song, except for
some variations.

This is a variation used at the beginning of the song. Around
1:03

|----5575|7---55--|--------|
|---7----|---7--75|--------|
|5-------|--------|5-------|
|--------|--------|--------|

This is one variation from when it goes from D to G.
It is used again at 3:06

|----5575|----55--|----------|--------|
|---7----|---7--76|5-----3353|----3353|
|5-------|5-------|---3h5----|---5----|
|--------|--------|----------|3-------|


Variation from A to D plus another variation
from D to G around 1:55. The D to G part is 
used again at 2:43

|--------|--------|----5575|-----5--|----------|
|----5575|----55--|---7----|---7---7|5-----3353|
|---7----|---7--76|5-------|5-------|---3h5----|
|5-------|5-------|--------|--------|----------|


|--------|--------|
|----3353|--------|
|---5----|5-------|
|3-------|--------|


Gypsy Queen.


|7-5-------------|----------------|----------------|	
|----7-5---------|----------------|----------------|
|--------8-7-5---|5---5---5---5---|5---5---5-------|
|--------------8-|--5---5---5---5-|--5---5---------|



|--------|--------|--------|
|--------|--------|--------|
|--------|5-035-07|5-------|
|--------|--------|--------|
|this section repeats for a while |

Until

|--------|--------|--------|
|--------|--------|--------|
|3-2-----|--------|--------|
|--------|--------|--------|
Comments