Santana - Black Magic Woman Chords & Tabs

 

Black Magic Woman Chords & Tabs

Santana Chords & Tabs

Version: 3 Type: Bass Tab 0 ratings
1 star 2 stars 3 stars 4 stars 5 stars
comments

Black Magic Woman Bass Tab

This is only the beginning but the rest is just slightly different from
the thing at the end. and this is shurely 100%. 

emails to : partypopper7@hotmail.com

rob

Carlos Santana - Black Magic Woman

Bass 

G|---------|--------------|---------|-----------------|-----------------|
D|---------|--------------|---------|-----------------|-----------------|
A|---------|--------------|--5------|--(5)-------12--\|--5-------(5)----|
E|---------|---------5-5--|---------|-----------------|--------------5--|

G|----------------|-----------------|-----------------|-----------------|
D|----------------|-----------------|-----------------|-----------------|
A|--5--------12--\|--5------(5)-----|---5--------12--\|--5-------(5)----|
E|----------------|-------------5---|-----------------|--------------5--|

G|----------------|-----------------|-----------------|------------------|
D|----------------|-----------------|-----------------|------------------|
A|--5--------12--\|--5------(5)-----|--5---------12--\|--5-------(5)-5---|
E|----------------|-------------5---|-----------------|------------------|

G|----------------|-----------------|-----------------|------------------|
D|--------5-5-----|--------5-5-/-7--|-----------------|------------------|
A|------5------5--|------5----------|--5------5-5-----|--5------5-5---5--|
E|--3-------------|--3--------------|-------5------5--|-------5----------|
[ Tab from: http://www.guitartabs.cc/tabs/s/santana/black_magic_woman_btab_ver_3.html ]
G|----------------|-----------------|-----------------|-----------------|
D|--------5-5-----|--------5-5-/-7--|-----------------|-----------------|
A|------5------5--|------5----------|--5-------(5)----|--5--------------|
E|--3-------------|--3--------------|--------------5--|-----------------|

G|--------5-5-7-5--|--------5-5-7-5--|-----------------|-----------------|
D|--0---7----------|--0---7----------|--------5-5-7-5--|--------5-5-7-5--|
A|-----------------|-----------------|--0---7----------|--0---7----------|
E|-----------------|-----------------|-----------------|-----------------|

G|--------5-5-7-5--|--------5-5-7-5--|-----------------|-----------------|
D|--0---7----------|--0---7----------|--------3-3-5-3--|--------3-3-5-3--|
A|-----------------|-----------------|------5----------|------5----------|
E|-----------------|-----------------|--3--------------|--3--------------|

G|--------5-5-7-5--|-----------------|--------5-5-7-5--|--------5-5-0----|
D|--0---7----------|--------5-5-7-5--|--0---7----------|--0---7-------3--|
A|-----------------|--0---7----------|-----------------|-----------------|
E|-----------------|-----------------|-----------------|-----------------|

G|-----------------|-----------------|-----------------|-----------------|
D|--0--------------|-----------------|-----------------|-----------------|
A|-----------------|-----------------|-----------------|-----------------|
E|-----------------|-----------------|-----------------|-----------------|
Comments