Santana - Black Magic Woman Chords & Tabs

 

Black Magic Woman Chords & Tabs

Santana Chords & Tabs

Version: 1 Type: Bass Tab 0 ratings
1 star 2 stars 3 stars 4 stars 5 stars
comments

Black Magic Woman Bass Tab

   
#--------------------------------------Please Note-------------------------------------------#
#This file is the author's own work and represents their interpretation of the# 
#song. You may only use this file for private study, scholarship, or research. #
#------------------------------------------------------------------------------------------------#
from: elguapo1@adelphia.net

Title:   Black Magic Woman (Most Correct Version)
 Bass Tab   W/ chords

Notes: Hi guys. I tried to post a version of this song that was a big improvement over the former transcriptions on here,
but I realized that it still contained several mistakes. I've tried to correct those, and it's at least 99% correct now.
The main riff through the middle of the song is the same throughout, but lands in different keys. Just Insert it into 
the chord progression on here and you’ll catch on.


Intro.
G/---------------------------------------/
D/---------------------------------------/
A/--------5----------12  ----5----------/	(Play 5 times)
E/------5--------------------------------/


Intro. (cont.)  @:28
G/----------------------------------------------------------------------------------------------------------------------
D/----------------------------------------------------------------------------------------------------------------------
A/--5-----5---------5------5---------3  5----3--5--5-----3--5----3--5--5------5------5--------—5-----5---------3 / 5---
E/----3------3--3------3------3--3------------------------------------------------3------3--3------3-----3--3-----------
     

Main Riff       (Starts @ :45)
G/-------------------------------------------/
D/-------------------------------------------/
A/-------5----5--3-3--5--3--5----------------/
E/-------------------------------------------/

[ Tab from: http://www.guitartabs.cc/tabs/s/santana/black_magic_woman_btab.html ]
Chord Progression
G/-----------------------------------------------------------------------------------------------------------------------
D/-----------------------------------------------------------------------------------------------------------------------
A/--------%--------%--------%--------%--------%--------%-------%--------%--------%--------%--------%---------%-----------
E/-----------------------------------------------------------------------------------------------------------------------        	
          D	   D	    A        A	      D        D       G	G	 D	  A        D         D


Note: Play through above progression once and end on G chord (see below)
G/-----------------/----------------------/------------------------------------------------------------------------------
D/-----------------/----------------------/------------------------------------------------------------------------------
A/--------%--------/----------%-----------/----REPEAT ABOVE CHORD PROGRESSION SEVERAL TIMES------------------------------ 
E/-----------------/----------------------/------------------------------------------------------------------------------
	G	              D  (8Times)      @1:25 “Got a black magic woman….


G/---------------------------------------/------------------------------------------------/-----------------------------/
D/---------------------------------------/----5-3-----------------------------------------/-----------------------------/
A/--------5------------12  ------5-----/---------5-3-2----------5-0-5-0-5-0-5-0-5-0-5----/-----------5-3---3-5---------/
E/------5--------------------------------/--------------5-3-2-----------------------------/---------5-----------5-------/             
       
    @3:21      (play 4 times)                    				                   play many times


G/---------------------------------/-----------------------------/
D/---------------------------------/-----------------------------/
A/-------5-------3---5------------/-----------5-------3---------/
E/-----------5---------------------/--------------5-------------/
				              
 						 End


% = Repeat Section
 = Slide Down
/ = Slide Up

Comments