Santana - America Chords & Tabs

 

America Chords & Tabs

Santana Chords & Tabs

Version: 1 Type: Tab 0 ratings
1 star 2 stars 3 stars 4 stars 5 stars
comments

America Tab

   
#----------------------------------PLEASE NOTE---------------------------------#
#This file is the author's own work and represents their interpretation of the #
#song. You may only use this file for private study, scholarship, or research. #
#------------------------------------------------------------------------------##

                                     AMERICA
                             As recorded by Santana
                          (From the 2002 Album SHAMAN)

Words by P.O.D.

Music by P.O.D. and Santana
Arranged by Peter Lust
Transcribed by Peter Lust

Gtr I (E A D G B E) - 'Carlos Santana-Lead'
Gtr II (D G C F A D) - 'Marcos-Rhythm'
Gtr III (D G C A A D) - 'Wammie'

 Intro
  Q=106
  A                       B
 4/4
  Gtr I
                       ~~~~~~~~~~~~~~~~~~~~~~
  H        E  E E E   +H.           +E.   S
|-------------------|-----------------------|
|-------------------|-----------------------|
|-----------------9-|-(9)-----------(9)---7-|
|---------------7---|-----------------------|
|-------------7-----|-----------------------|
|-------------------|-----------------------|
|
| Gtr II
| E E E E +E  E E E   +E  E E E E E  E  E
|-------------------|-----------------------|
|-------0-(0)-------|-----2-----2-----------|
|-----4-------4-----|-------4-----4---------|
|---4-----------4---|---------4------4------|
|-2---------------0-|-(0)---------------0---|
|-------------------|-----------------------|


  A                     F   F
 ~~~~~
                                                     |--3--|
  +Q    +E   E  +H           S   S  S  S  H          S  S  S  E
|-------------------------|-------------------------------------|
|-------------------------|-------------------------------------|
|-(7)---(7)s12-(12)-------|-14p=12------------------------------|
|-------------------------|--------14p12-14---------12-14-12s10-|
|-------------------------|-------------------------------------|
|-------------------------|-------------------------------------|
|
|  E  E  E   E  +E  E E E   +E      E     E E +E  E  E        E
|-------------------------|-------------------------------------|
|------------0--(0)-------|-------------------------------------|
|--------4----------4-----|-----------------------------------4-|
|-----4---------------4---|---------------4----------4----------|
|--2----------------------|---------2-------------2-------------|
|-----------------------3-|-(3)-------------0-(0)---------------|


  A                                         G
        |--3--|               |-3--|
   Q    S  S  S  E  +E   E S  T  T T  S S    S  S  Q    E  E  E  Q
|-----------------------------------------|--------------------------|
|-----------------------------------------|--------------------------|
|-----------------------------------------|--------------------------|
|-12---14s12p10-12-(12)-10-9h12p10p9-10p9-|-10p=9------------12-14---|
|-----------------------------------------|-------12s==14-15---------|
|-----------------------------------------|--------------------------|
|
|  E E  E        E  +E   E E          E     +E     E E  E  E  E  E E
|-----------------------------------------|--------------------------|
|----------------0--(0)-------------------|--------2-------2---------|
|-------4----------------4----------------|----------4--------4------|
|----4---------------------4--------------|-------------4--------4---|
|--2----------------------------------0---|-(0)--------------------0-|
|-----------------------------------------|--------------------------|


  A                                                      F
   E  E     S  S     S  S     S   S     S  S     S  S     S  T  T
|----------12-------12-------12--------12-------12-------12-15p12--|
|----15b17----15b17----15b17-----15b17----15b17----15b17-----------|
|-14---------------------------------------------------------------|
|------------------------------------------------------------------|
|------------------------------------------------------------------|
|------------------------------------------------------------------|
|
|  E  E     E        E       +E         E        E        E
|------------------------------------------------------------------|
|--------------------0-------(0)-----------------------------------|
|-----------4---------------------------4--------------------------|
|-----4------------------------------------------4-----------------|
|--2---------------------------------------------------------------|
|---------------------------------------------------------3--------|


             D               A
   Q.         S  S  S   E.      E     E
|-15tr12-----15-15-15--15b17---15b17-15b17-|
|------------------------------------------|
|------------------------------------------|
|------------------------------------------|
|------------------------------------------|
|------------------------------------------|
|
|  E     E E  E    +E        E  E     E
|------------------------------------------|
|------------------------------------------|
|-------------------------------------4----|
|----------4--------------------4----------|
|--------2-------------------2-------------|
|--3----------0----(0)---------------------|


                                           G
   +Q     Q       E     S  S  S  S  S  S    S   S  S  S  +E   E Q   S  S  S  S
|-(15)---15b17---15b17-15-12-15p12----12-|-----12------------------------------|
|----------------------------------15----|-15-----15-13-(13)h15-------13-13-13-|
|----------------------------------------|-------------------------------------|
|----------------------------------------|-------------------------------------|
|----------------------------------------|-------------------------------------|
|----------------------------------------|-------------------------------------|
|
|   E  E  E    E +E     E     E     E      +E      E      E   E E E E     E
|----------------------------------------|-------------------------------------|
|--------------0-(0)---------------------|---------2------------2--------------|
|---------4-------------4----------------|----------------4-------4------------|
|------4----------------------4----------|--------------------4-----4----------|
|---2-------------------------------0----|-(0)----------------------------0----|
|----------------------------------------|-------------------------------------|


  A                                  F
            ~~~~~
   S  E.    E  E  +S   S  S  S  S  S  E
|---------------------------------------|
|-15------------------------------------|
|----14----14-14-(14)p12----------------|
|------------------------12----------14-|
|---------------------------15-12-15----|
|---------------------------------------|
|
|  E     E  E  E  +E      E     E     E
|---------------------------------------|
|--------------0--(0)-------------------|
|-----------4-------------4-------------|
|--------4----------------------4-------|
|--2------------------------------------|
|-------------------------------------3-|


                  D                             A
   E   S  S  S  S  S  S  S   S  E  S  S  S  S    E.   S  Q     Q    E  S  S
|---------------------------------------------|------------------------------|
|---------------------------------------------|------------------------------|
|---------------------------------------------|-----------------------12-14--|
|-12-----12-14-12-10-12-10--------10-------10-|------------------------------|
|-----15--------------------12-10----12-10----|-12p==10-12\------------------|
|---------------------------------------------|------------------------------|
|
| +E   E     E     E    +E      E  E     E       E E     E  E +E  E E  E
|---------------------------------------------|------------------------------|
|---------------------------------------------|-------------0-(0)------------|
|----------------------------------------4----|----------4--------4----------|
|------------4---------------------4----------|----4----------------4--------|
|------2------------------------2-------------|--2---------------------0-----|
|-(3)--------------0----(0)-------------------|------------------------------|


  G                                    A                       F
   E.    S  S  S  E  S  S  S  S  Q     E  S  S  E  E  e   e  e  E
|------------------------------------|----------------------------|
|-------------------12-13p12---------|------------12-13--12-13-15-|
|-14----12-14-14-14----------12------|---14-14-14-----------------|
|-------------------------------14---|----------------------------|
|------------------------------------|----------------------------|
|------------------------------------|----------------------------|
|
|  E  E     E     E  E     E     E E   E  E     E  E +E   E  E  E
|------------------------------------|----------------------------|
|-----2--------------2---------------|-------------0-(0)----------|
|-----------4--------------4---------|----------4---------4-------|
|-----------------4--------------4---|----4------------------4----|
|--0-------------------------------0-|-2--------------------------|
|------------------------------------|--------------------------3-|


                   D
   +E      E  Q       Q       S  S  S  S
|----------------------------12----------|
|-(15)b17-15-15b17---15b17------13-13-13-|
|----------------------------------------|
|----------------------------------------|
|----------------------------------------|
|----------------------------------------|
|
|  +E      E  E    E +E    E  E     E
|----------------------------------------|
|----------------------------------------|
|-----------------------------------4----|
|-------------4---------------4----------|
|----------2---------------2-------------|
|--(3)-------------0-(0)-----------------|


 1st Verse
  A5                     G                               D5
                            \0.5/
         ~~~
   S  S  Q.    H         E  E      +Q    +S   E.   Q     Q  T T E.S S Q   E
|----------------------|---12-----(12)--(12)-12\-------|--------------------|
|-15-------------------|---13-----(13)--(13)-13\-------|----5---------------|
|----14-14\------------|-------------------------------|------7p5h7---------|
|----------------------|-------------------------------|----------7p0-------|
|----------------------|-------------------------------|--------------------|
|----------------------|-------------------------------|--------------------|
|
|  Q        Q  E E E E   Q          Q     E      E E E   Q  Q     E   E E E
|----------------------|-------------------------------|--------------------|
|----------------------|-------------------------------|--------------------|
|--4-------------4---4-|-2-----------------------2---2-|--------------------|
|--0-------------4---4-|-x-----------------------x---x-|-2------------2---2-|
|--2-------------2---2-|-0-----------------------0---0-|-2------------2---2-|
|----------------------|-------------------------------|-0------------0---0-|


  F5                                A5                    G
                                                                ~~~
  E S S S S E  S  S S   S   S S E   H     Q    e  E        +E   Q.    H
|---------------------------------|---------------------|---------------------|
|---------------------------------|-----------12-12b13==|=(12)-12-------------|
|-------5-5-----------------------|---------------------|---------------------|
|---x-7-----7-----7p5-------------|---------------------|---------------------|
|--------------7--------7p==5-----|---------------------|---------------------|
|-----------------------------8p5-|---------------------|---------------------|
|
|                   |--3--|
| Q     E   E +E    S S   S E   E   Q  Q  E E  E  E         Q      Q  E E E E
|---------------------------------|---------------------|---------------------|
|---------------------------------|---------------------|---------------------|
|-------------------------------0-|-4-------4-----4-----|---2-----------2---2-|
|-5---------7-(7)---5-7---5s4---0-|-4-------4-----4-----|---x-----------x---x-|
|-5-------------------------------|-2-------2-----2-----|---0-----------0---0-|
|-3-------------------------------|---------------------|---------------------|


  D5
  Q  E  E     +H
|--------------------------|
|------15b17-(15)b17-------|
|--------------------------|
|--------------------------|
|--------------------------|
|--------------------------|
|
| Q  Q         E     E E E
|--------------------------|
|--------------------------|
|--------------------------|
|-2------------------2---2-|
|-2------------------2---2-|
|-0------------------0---0-|


     F5                               G5                    A5
         |--3--|     |---3----|
   E     E     s     E     E  E  S     S   S  S  S  S   E    H      +E   E  E  E
|-15-------------------------12---------------------------|----------------12----|
|-------15b16-15b16-13----15----15b16-15--13----15-13-----|-------------------15-|
|--------------------------------------------14--------12-|-14-----(14)-14-------|
|---------------------------------------------------------|----------------------|
|---------------------------------------------------------|----------------------|
|---------------------------------------------------------|----------------------|
|
|  S E.              S E.        S     E.        S  E.       Q  Q    E   E  E  E
|---------------------------------------------------------|----------------------|
|---------------------------------------------------------|----------------------|
|--------------------------------------2------------2-----|--4-----------4-----4-|
|--x-5---------------x-5---------x-----2---------x--2-----|--4-----------4-----4-|
|--x-5---------------x-5---------x-----0---------x--0-----|--2-----------2-----2-|
|--x-3---------------x-3---------x---------------x--------|----------------------|


  Gtr I
   +E   Q   E E  E  E     E       +E      E  Q       Q   Q
|---------------15-------------|----------------------------|
|-(15)-13----------15b17-15b17-|-(15)b17-13-15b17===15--15--|
|----------14------------------|----------------------------|
|------------------------------|----------------------------|
|------------------------------|----------------------------|
|------------------------------|----------------------------|
|
| Gtr II
|   W                              W
|------------------------------|----------------------------|
|------------------------------|----------------------------|
|------------------------------|----------------------------|
|------------------------------|----------------------------|
|------------------------------|----------------------------|
|------------------------------|----------------------------|


   S     S  S  S     S  S     S  S  S  S  S  S  Q
|-------12-12-------12-------12-12-12-12-12-12-15b17--|
|-15b17-------15b17----15b17--------------------------|
|-----------------------------------------------------|
|-----------------------------------------------------|
|-----------------------------------------------------|
|-----------------------------------------------------|
|
|  W
|-----------------------------------------------------|
|-----------------------------------------------------|
|-----------------------------------------------------|
|-----------------------------------------------------|
|-----------------------------------------------------|
|-----------------------------------------------------|


  Eb              E     F         E Eb  E       EbC#  Eb
  Gtr III
   ~~~~~~                   ~~~         ~~            ~~
   H.           E E   S E. +H     E E   H.      E E   H.           +Q
|-------------------|-----------------|-------------|--------------------|
|-------------------|-----------------|-------------|--------------------|
|--6------------6-7-|-7s8--(8)----7-6-|-7-------6-4-|-6------------(6)\--|
|-------------------|-----------------|-------------|--------------------|
|-------------------|-----------------|-------------|--------------------|
|-------------------|-----------------|-------------|--------------------|
|
| Gtr I
|  Q      Q  H        W                 W             E  E E E E E  Q
|-15b17\------------|-----------------|-------------|--------------------|
|-------------------|-----------------|-------------|--------------------|
|-------------------|-----------------|-------------|--------------------|
|-------------------|-----------------|-------------|--------2-4s9--9\---|
|-------------------|-----------------|-------------|-2--4-5-------------|
|-------------------|-----------------|-------------|--------------------|


 1st Chorus
  A                 G                           A                    F
  Gtr I
   ~~                ~~~~~~~~~              ~~~~~~~~~
   H        +Q.      E    +H.            E  E    +H         +Q     E  E
|----------------------|----------------12----|----------------------------|
|-------------------12-|-(12)--------------13-|-(13)-------(13)\-----15b17-|
|-14-------(14)--------|----------------------|----------------------------|
|----------------------|----------------------|----------------------------|
|----------------------|----------------------|----------------------------|
|----------------------|----------------------|----------------------------|
|
| Gtr II
|  E E E E  +E  E E  E    +E  E E E E E  E  E     E  E E E  +E   E E  E
|----------------------|----------------------|----------------------------|
|--------0--(0)--------|------2-----2---------|----------0--(0)------------|
|------4--------4------|--------4-----4-------|--------4---------4---------|
|----4------------4----|----------4------4----|------4-------------4-------|
|--2-----------------0-|--(0)---------------0-|---2------------------------|
|----------------------|----------------------|-----------------------3----|


  F          D         A
   +E   e  e  e  S   S  S  S  S  S  E
|---------------12--------------------|
|-(15)-15-13-15-----15-13----15-13----|
|-------------------------15-------14-|
|-------------------------------------|
|-------------------------------------|
|-------------------------------------|
|
|   E   E  E  E +E      E     E     E
|-------------------------------------|
|-------------------------------------|
|-----------------------------------4-|
|----------4------------------4-------|
|-------2---------------2-------------|
|---3---------0-(0)-------------------|


  A                         G
   ~~                        ~~
   H        +S   S  S  S  E  E    H         +E   E  E  E
|------------------------------|--------------------------|
|---------------------------12-|-12--------(12)----12-13--|
|-14-------(14)p12-------14----|----------------14--------|
|------------------14p12-------|--------------------------|
|------------------------------|--------------------------|
|------------------------------|--------------------------|
|
|  E E E E  +E      E     E  E   +E  E E E   E   E  E  E
|------------------------------|--------------------------|
|--------0--(0)----------------|-----2-------2------------|
|------4------------4----------|-------4---------4--------|
|----4--------------------4----|---------4----------4-----|
|--2-------------------------0-|-(0)-------------------0--|
|------------------------------|--------------------------|


  A                         F
    ~~~~                     TP
   +Q.      E  +E   E  E     E
|------------------12-------12-|
|-(13)-----15-(15)----15b17----|
|------------------------------|
|------------------------------|
|------------------------------|
|------------------------------|
|
|   E  E E  E  +E   E  E     E
|------------------------------|
|-----------0--(0)-------------|
|--------4----------4----------|
|------4---------------4-------|
|---2--------------------------|
|----------------------------3-|


       A              D         A
    TP
   +E   S     S  Q       +E      +E      E     E
|-(12)-------12-15b16---(15)b16-(15)b16-15b17-15b17-|
|------15b17----------------------------------------|
|---------------------------------------------------|
|---------------------------------------------------|
|---------------------------------------------------|
|---------------------------------------------------|
|
|  +E   E        E    E  +E       E      E     E
|---------------------------------------------------|
|---------------------------------------------------|
|----------------------------------------------4----|
|----------------4-----------------------4----------|
|-------2-------------------------2-----------------|
|--(3)----------------0--(0)------------------------|


 2nd Verse
  A5
   ~~~~~~~~~~~~~~
   Q      +E.     +S      E E Q
|-15b17--(15)b17-(15)b17p12-------|
|---------------------------------|
|---------------------------------|
|---------------------------------|
|---------------------------------|
|---------------------------------|
|
|  Q       Q              E E E E
|---------------------------------|
|---------------------------------|
|--4------------------------4---4-|
|--4------------------------4---4-|
|--2------------------------2---2-|
|---------------------------------|


  G                             D5
      |-3-| |-3-|
  E E E e e E   S S S S S S S   S E. Q  H
|-----------------------------|------------------|
|-------8-5-------------------|------------------|
|-----------7b9-7-5---7p5-----|------------------|
|-------------------7-----7p5-|------------------|
|---0-------------------------|-5----------------|
|-----------------------------|---8--------------|
|
| Q   Q     E     E   E   E     Q    Q  E E E E
|-----------------------------|------------------|
|-----------------------------|------------------|
|-2---------------2-------2---|------------------|
|-x---------------x-------x---|-2---------2---2--|
|-0---------------0-------0---|-2---------2---2--|
|-----------------------------|-0---------0---0--|


  F5
    |----3----|
  E S    S    S S S   S S  S  S S   S   S  E.
|--------------------------5-------------------|
|---------------------5-5-----8-5--------------|
|---7b9==7b9==7p5-7b9---------------8---7-15s==|
|----------------------------------------------|
|----------------------------------------------|
|----------------------------------------------|
|
|                               |--3--|
| Q             E     E   +E    S S   S E    E
|----------------------------------------------|
|----------------------------------------------|
|--------------------------------------------0-|
|-5-------------------7---(7)---5-7---5s4----0-|
|-5--------------------------------------------|
|-3--------------------------------------------|


  A5                         G
   ~~
   Q   +Q    E Q    E         +Q         +E   S  S  S  S  E  S  E.
|--------------------------|------------------------------------------|
|--------------------------|------------------------------------------|
|-14--(14)\--------14b16.5-|-(14)b16.5--(14)-14-12--------------------|
|--------------------------|-----------------------12-------14--------|
|--------------------------|--------------------------15-12----15\----|
|--------------------------|------------------------------------------|
|
|  Q    Q    E E E  E          Q          Q         E     E  E     E
|--------------------------|------------------------------------------|
|--------------------------|------------------------------------------|
|--4-----------4----4------|---2--------------------------2--------2--|
|--4-----------4----4------|---x--------------------------x--------x--|
|--2-----------2----2------|---0--------------------------0--------0--|
|--------------------------|------------------------------------------|


  F5                     A5
                                           ~~
  W                      E  S     S  S  S  E  S  S  S  S  S  S  E
|----------------------|------------------------------------------|
|----------------------|---------15-------------------------------|
|----------------------|---14b16----14-12-14-14-12-14-12----------|
|----------------------|---------------------------------12-------|
|----------------------|------------------------------------15-12-|
|----------------------|------------------------------------------|
|
|            |-3-|
| Q  E E +E  S S S E E   Q           Q        E     E     E     E
|----------------------|------------------------------------------|
|----------------------|------------------------------------------|
|--------------------0-|-4--------------------------4-----------4-|
|-5----7-(7)-5-7-5s4-0-|-4--------------------------4-----------4-|
|-5--------------------|-2--------------------------2-----------2-|
|-3--------------------|------------------------------------------|


                   G
  Gtr III
  ~~                     ~~~
  H.         E E   S E. +H       E E
|----------------|-------------------|
|----------------|-------------------|
|-6----------6-7-|-7s8--(8)------7-6-|
|----------------|-------------------|
|----------------|-------------------|
|----------------|-------------------|
|
| Q   Q  E E E E   Q     Q   E E E E
|----------------|-------------------|
|----------------|-------------------|
|-4--------4---4-|-2-----------2---2-|
|-4--------4---4-|-x-----------x---x-|
|-2--------2---2-|-0-----------0---0-|
|----------------|-------------------|


  D5               F5
  ~~               ~~
  H.         E E   H.                +Q
|----------------|--------------------------|
|----------------|--------------------------|
|-7----------6-4-|-6-----------------(6)\---|
|----------------|--------------------------|
|----------------|--------------------------|
|----------------|--------------------------|
|
|                              |-3-|
| Q   Q  E E E E   Q   E E +E  S S S  E   E
|----------------|--------------------------|
|----------------|--------------------------|
|----------------|------------------------0-|
|-2--------2---2-|-5-----7-(7)-5-7-5s=4---0-|
|-2--------2---2-|-5------------------------|
|-0--------0---0-|-3------------------------|


 2nd Chorus
  A                   G
  Gtr I
                       ~~~~~~~~~                  ~~
   H        +E   E  E  E    +H         +E   E  E  E
|------------------------|--------------------------|
|---------------------12-|-(12)-------(12)----12-13-|
|-14-------(14)-12-14----|-----------------14-------|
|------------------------|--------------------------|
|------------------------|--------------------------|
|------------------------|--------------------------|
|
|  E E E E  +E   E  E  E    +E  E E E   E   E  E  E
|------------------------|--------------------------|
|--------0--(0)----------|------2-------2-----------|
|------4---------4-------|--------4---------4-------|
|----4--------------4----|----------4----------4----|
|--2-------------------0-|--(0)-------------------0-|
|------------------------|--------------------------|


  A                     F                             D      A
                                                              ~~~~~
   +Q.      E  E   E  E  S     +S        +E      E  E  E  E   E     +S      S  S  S
|-------------------------------------|------------------15--------------------------|
|-(13)-----15-13--15-13-15b17-(15)b17-|-(15)b17-15-13-15-----15b17-(15)b17-13s12-----|
|-------------------------------------|------------------------------------------12--|
|-------------------------------------|----------------------------------------------|
|-------------------------------------|----------------------------------------------|
|-------------------------------------|----------------------------------------------|
|
|   E  E E  E +E   E  E  E               +E      E  E  E +E   E      E         E
|-------------------------------------|----------------------------------------------|
|-----------0-(0)---------------------|----------------------------------------------|
|--------4---------4------------------|----------------------------------------4-----|
|------4--------------4---------------|-------------4----------------4---------------|
|---2---------------------------------|----------2------------2----------------------|
|------------------------3------------|--(3)-----------0-(0)-------------------------|


  A                      G
   ~~~~~~~~~~~~~~         ~~
   H        +S   S  E  E  E    +H.            S  S  S  S
|---------------------------|-------------------------12-|
|------------------------12-|-(12)--------------12-13----|
|-14-------(14)p12----14----|----------------14----------|
|------------------14-------|----------------------------|
|---------------------------|----------------------------|
|---------------------------|----------------------------|
|
|  E E E E  +E      E  E  E    +E  E E E E E  E     E
|---------------------------|----------------------------|
|--------0--(0)-------------|------2-----2---------------|
|------4------------4-------|--------4-----4-------------|
|----4-----------------4----|----------4------4----------|
|--2----------------------0-|--(0)------------------0----|
|---------------------------|----------------------------|


  A                     F             D               A
   ~~
   Q    E  E  H              Q.        +E      +E      S  S  S     S  S  S
|---------12-12tr15-------|-15b17-----(15)b17-(15)b17-15-12----------------|
|-13---15-----------------|---------------------------------15b17-15-13----|
|-------------------------|---------------------------------------------14-|
|-------------------------|------------------------------------------------|
|-------------------------|------------------------------------------------|
|-------------------------|------------------------------------------------|
|
|  E E  E  E +E     E E E   +E    E E   E      +E      E     E        E
|-------------------------|------------------------------------------------|
|----------0-(0)----------|------------------------------------------------|
|-------4-----------4-----|-------------------------------------------4----|
|----4----------------4---|---------4------------------------4-------------|
|--2----------------------|-------2--------------------2-------------------|
|-----------------------3-|-(3)---------0------(0)-------------------------|


 Interlude
  A5                    A5/G       F5         E5
         ~~~~~~~~~~
   S  S  Q.    +H       W          W          H    E E E E
|---------------------|----------|----------|---------------|
|-15-13---------------|----------|----------|---------------|
|-------14----(14)----|----------|----------|------------9--|
|---------------------|----------|----------|----------7----|
|---------------------|----------|----------|--------7------|
|---------------------|----------|----------|---------------|
|
|  W                    W          W          W
|---------------------|----------|----------|---------------|
|---------------------|-0--------|----------|---------------|
|--4------------------|-4--------|----------|---------------|
|--4------------------|-4--------|-5--------|-4-------------|
|--2------------------|-0--------|-5--------|-4-------------|
|---------------------|----------|-3--------|-2-------------|


  A                 G                         D   F
   ~~~              ~
  +H        +E  E E E   +Q.     E +E.   S +E  E   S S Q.     +Q    Q
|---------------------|-------------------------|----------------------|
|---------------------|-------------------------|----------------------|
|-(9)-------(9)---9-7-|-(7)-----5-(5)s==4-(4)-4h|=5p4------------------|
|---------------7-----|-------------------------|-----7------(7)-------|
|---------------------|-------------------------|----------------------|
|---------------------|-------------------------|----------------------|
|
|  E  E E E +E  E E E   +E  E E E +E  E    E  E   E   E  E E +E  E E E
|---------------------|-------------------------|----------------------|
|---------0-(0)-------|---------0-(0)-----------|----------------------|
|-------4-------4-----|-------4-------4---------|----------0-(0)-------|
|-----4-----------4---|-----4--------------4----|--------5-------5-----|
|--2----------------0-|-(0)---------------------|-----5------------5---|
|---------------------|-----------------------0-|-3------------------0-|


  E5          C     E5
  S S S S S S  S  S  S S S S S S E
|----------------------------------|
|----------------------------------|
|----------------------7-7-7-9-9-9-|
|-7-7-7-9-9-9-10-10-10-------------|
|----------------------------------|
|----------------------------------|
|
| E   E   E    E     E   E   E   E
|----------------------------------|
|----------------------------------|
|--------------0-------------------|
|-4---4---4----4-----4---4---4---4-|
|-4---4---4----------4---4---4---4-|
|-2---2---2----------2---2---2---2-|

[ Tab from: http://www.guitartabs.cc/tabs/s/santana/america_tab.html ]
                    C     E5                   C E5
                                  TP                  TP TP
   S  S  S  S  S  S  S  S  S  E.  Q     H.            E  E
|-------------------------10-10S==4S==|=7------------16-17--|
|-10-10-10-12-12-12-13-13---------4S==|=7------------16-17--|
|---------------------------------4S==|=7------------16-17--|
|-------------------------------------|---------------------|
|-------------------------------------|---------------------|
|-------------------------------------|---------------------|
|
|  E     E     E     E     E    E E E   E  E E E E E  E  E
|-------------------------------------|---------------------|
|-------------------------------------|---------------------|
|--------------------0----------------|--------0------------|
|--4-----4-----4-----4-----4----4-4-4-|-4--4-4-4-4-4--4--4--|
|--4-----4-----4-----------4----4-4-4-|-4--4-4---4-4--4--4--|
|--2-----2-----2-----------2----2-2-2-|-2--2-2---2-2--2--2--|


 Guitar Solo
  A                                                     G
  Gtr I
   Q       S  S     S  S     S   S     S  S     S  S     S  S
|---------17-------17-------17--------17-------17-------17-17-|
|-20b22------20b22----20b22-----20b22----20b22----20b22-------|
|-------------------------------------------------------------|
|-------------------------------------------------------------|
|-------------------------------------------------------------|
|-------------------------------------------------------------|
|
|  E    E  E        E       +E         E        E        E
|-------------------------------------------------------------|
|-------------------0-------(0)-------------------------------|
|----------4---------------------------4----------------------|
|-------4---------------------------------------4-------------|
|--2-----------------------------------------------------0----|
|-------------------------------------------------------------|


             ~~
                     |--3--|
   S   S  S  S  +E   S  S  S  S  S  S  T      T  S  S  S  S
|-17--20-19-19-(19)-17h19p17--------------------------------|
|----------------------------20-17-19-----------------------|
|-------------------------------------19pb20r19-17----17-19-|
|--------------------------------------------------19-------|
|-----------------------------------------------------------|
|-----------------------------------------------------------|
|
| +E      E      E   E        E     E            E     E
|-----------------------------------------------------------|
|---------2-------------------2-----------------------------|
|----------------4------------------4-----------------------|
|--------------------4---------------------------4----------|
|-(0)--------------------------------------------------0----|
|-----------------------------------------------------------|


  A                                                          F
                                                              |--3--|
   +S   S  S       S  +S   S  S  S  +S   S  S  S  T  T  T  T  S  S  S
|---------------------------------------------------------------------|
|------17-----------------17------------17-------17----------17-18-17-|
|-(19)----17b17.5-19-(19)----17-19-(19)----17-19----19p17-19----------|
|---------------------------------------------------------------------|
|---------------------------------------------------------------------|
|---------------------------------------------------------------------|
|
|   E      E           E      E     +E      E     E           E
|---------------------------------------------------------------------|
|-----------------------------0-----(0)-------------------------------|
|----------------------4--------------------4-------------------------|
|----------4--------------------------------------4-------------------|
|---2-----------------------------------------------------------------|
|-------------------------------------------------------------3-------|


               A               D
   T   T  T  T  T  T  T  T  E    E  S   S  E  +E  E
|---------------------------------------------------|
|---------------------------------------------------|
|-19--17-19-17--------------------------------------|
|--------------19-17---------------17--19-19-(19)s6-|
|--------------------19-17-15\-/19------------------|
|---------------------------------------------------|
|
| +E            E           E    E +E      E   E  E
|---------------------------------------------------|
|---------------------------------------------------|
|-------------------------------------------------4-|
|---------------------------4------------------4----|
|---------------2--------------------------2--------|
|-(3)----------------------------0-(0)--------------|


  A                    G                                  G
                        ~~             ~~
  E  E  E  E  E   E  E  E    E   E  E  E E  S  S  S  E.
|---17-17-17-17--17-19-19-|-19--20-20-20---18-20-22-22b24---|
|-------------------------|---------------------------------|
|-0-----------------------|---------------------------------|
|-0-----------------------|---------------------------------|
|-------------------------|---------------------------------|
|-------------------------|---------------------------------|
|
| E  E  E  E +E   E  E  E   +E   E  E  E E  E     E       E
|-------------------------|---------------------------------|
|----------0-(0)----------|------2-------2------------------|
|-------4---------4-------|---------4-------4---------------|
|----4---------------4----|------------4----------4---------|
|-2---------------------0-|-(0)---------------------------0-|
|-------------------------|---------------------------------|


                                            F            D
                    TP      TP        TP          TP
   +E      Q       +E      +Q        +Q          +Q.      E     +E      Q    E
|-(22)b24-22b24---(22)b24-(22)b24---(22)b24---|-(22)-----22b24-(22)b24-20\-----|
|---------------------------------------------|------------------------------0-|
|---------------------------------------------|--------------------------------|
|---------------------------------------------|--------------------------------|
|---------------------------------------------|--------------------------------|
|---------------------------------------------|--------------------------------|
|
|   E      E    E   E      +E     E   E     E    +E  E E  E     +E      E  E E
|---------------------------------------------|--------------------------------|
|-------------------0------(0)----------------|--------------------------------|
|---------------4-----------------4-----------|------------------------------4-|
|----------4--------------------------4-------|--------4-------------------4---|
|---2-----------------------------------------|------2------------------2------|
|-------------------------------------------3-|--(3)------0-----(0)------------|


  A                                            G
       ~~~~~~~~~~~~~
  +E   E     +E      +S   S  S   S  S  S  S  S  E
|------------------------17-----19-------------------|
|-(0)-20b22-(20)b22-(20)--------------17----17-------|
|----------------------------0-----19----19----19b21-|
|----------------------------------------------------|
|----------------------------------------------------|
|----------------------------------------------------|
|
|  E   E      E       E     +E      E     E     E
|----------------------------------------------------|
|---------------------0-----(0)----------------------|
|-------------4---------------------4----------------|
|------4----------------------------------4----------|
|--2--------------------------------------------0----|
|----------------------------------------------------|


   ~~~
       |--3--|                             |--3--|
   E   S  S  S  E  T  T  S  T  T  E     S  S  S  S  T  T  T  T
|--------------------------------------------------------------|
|-----17-------------------------------------13----------------|
|-19-----19p17-19-19-17----17----------12-14----12-14-12-14-12-|
|-----------------------19----19-17\---------------------------|
|--------------------------------------------------------------|
|--------------------------------------------------------------|
|
| +E   E        E  E        E        E     E        E
|--------------------------------------------------------------|
|------2--------------------2----------------------------------|
|---------------4--------------------4-------------------------|
|------------------4-----------------------4-------------------|
|-(0)-----------------------------------------------0----------|
|--------------------------------------------------------------|


  A                                                         F
                                                          TP
   |-----------9:8-----------|  |--3--|
   T  T  T  T  T    T  T  T  T  S  S  S  T  T  T  T  Q    Q
|-------13p12----------------------------------------xS===xS==|
|-12-12------------13p12-----------------------------xS===xS==|
|-12----------12------------------12-12----12-12-12--xS===xS==|
|------------------------12-12-12-------12--------------------|
|-------------------------------------------------------------|
|-------------------------------------------------------------|
|
|  E             E              E        E          +E  E E E
|-------------------------------------------------------------|
|----------------------------------------0----------(0)-------|
|-------------------------------4-----------------------4-----|
|----------------4----------------------------------------4---|
|--2----------------------------------------------------------|
|-----------------------------------------------------------3-|


          D             A                                                     G
   TP
   H         Q    E E   +S   S  S     S  E     S  S  S     S  S     S  +S   S  E
|--xS========x--------|-----17-------17-------17-17-------17-------17-(17)-17-17-|
|--xS========x--------|--------20b22----20b22-------20b22----20b22---------------|
|--xS========x--------|----------------------------------------------------------|
|---------------------|----------------------------------------------------------|
|---------------------|----------------------------------------------------------|
|-----------------0-0-|-(0)------------------------------------------------------|
|
| +E  E E E +E  E E E    E      E        E     E    +E        E         E      E
|---------------------|----------------------------------------------------------|
|---------------------|------------------------0----(0)--------------------------|
|-------------------4-|------------------4--------------------4------------------|
|-------4---------4---|---------4---------------------------------------4--------|
|-----2---------2-----|--2-----------------------------------------------------0-|
|-(3)-----0-(0)-------|----------------------------------------------------------|


                 ~~             ~~
   +S   S  S  S  E  S  S  S  S  E  +E  S  S
|-(17)-17-19-19-19-19-19-17-19-19-(19)---20p=|
|--------------------------------------------|
|--------------------------------------------|
|--------------------------------------------|
|--------------------------------------------|
|--------------------------------------------|
|
|  +E      E     E  E     E     E   E  E
|--------------------------------------------|
|----------2--------------2------------------|
|----------------4--------------4------------|
|-------------------4---------------4--------|
|--(0)---------------------------------0-----|
|--------------------------------------------|


  A                                                                           F
         |--3--|  |--3--|                                             |------6-------|
   S  S  T  T  T  T  T  T  T  T  T  T  T  T  T  T  T   T  T  T  S  S  S  S  S  S  S  S
|-17-----------------------------------------------------------------------------------|
|----18-17-------------17-18p17--------------------------------------------------------|
|----------19-17----17----------19-17----17-----------------17-------------------------|
|----------------19-------------------19----19p17-----17-------------------------------|
|-------------------------------------------------19-----19----17-19-20-19-17----17-19-|
|-----------------------------------------------------------------------------20-------|
|
|  E     E                 E           E          +E            E     E        E
|--------------------------------------------------------------------------------------|
|--------------------------------------0----------(0)----------------------------------|
|--------------------------4------------------------------------4----------------------|
|--------4------------------------------------------------------------4----------------|
|--2-----------------------------------------------------------------------------------|
|------------------------------------------------------------------------------3-------|


  F                       D
   |------6-------|
   S  S  S  S  S  S  E     +E      +H
|-----------------------------------------------|
|-----------------------------------------------|
|-------------------19b24-(19)b24-(19)b24-------|
|-----------------------------------------------|
|-20-19-17----17-19-----------------------------|
|----------20-----------------------------------|
|
|  E        E        E      E      +E     E E E
|-----------------------------------------------|
|-----------------------------------------------|
|---------------------------------------------4-|
|--------------------4----------------------4---|
|-----------2-----------------------------2-----|
|--3------------------------0------(0)----------|


  A                                      G
                                          ~~~
  E  S  S  S  S  S  S  S   S  S  S  S  S  E
|---------12--------------------------------|
|---13-15----13-----------------------------|
|---------------14-12-----------------------|
|---------------------14--13-12s10----10-12-|
|----------------------------------12-------|
|-------------------------------------------|
|
| E  E     E     E    +E      E     E     E
|-------------------------------------------|
|----------------0----(0)-------------------|
|----------4------------------4-------------|
|----4------------------------------4-------|
|-2---------------------------------------0-|
|-------------------------------------------|


 ~~~~~~
                          |--3--|  |3-|
   +E   S  S  S  S  S  S  S  S  S  S  E Q
|--------------------------------------------|
|--------------------------------------------|
|------------14-12---------------------------|
|-(12)-12h14-------12-10-12-10-12-10---------|
|------------------------------------10Sx/---|
|--------------------------------------------|
|
|  +E   E     E     E     E        E    E  E
|--------------------------------------------|
|-------2-----------------2------------------|
|-------------4--------------------4---------|
|-------------------4-------------------4----|
|--(0)-------------------------------------0-|
|--------------------------------------------|


  A                         F              D
                             TP    TP    TP   TP
  E S S +S  S  E  S  E.   E  E    +Q     Q    E.   S +E   E
|------------------------------|-------------------------22b24-|
|------------------------------|-------------------------------|
|-----------------7--9\-----14-|-(14)---16---17----------------|
|-7-7-9-(9)-9-10---------------|-------------------------------|
|------------------------------|-------------------------------|
|------------------------------|-------------------0-(0)-------|
|
| E E    E     E +E     E E  E     E  E  E E +E  E    E   E
|------------------------------|-------------------------------|
|--------------0-(0)-----------|-------------------------------|
|--------4--------------4------|--------------------------4----|
|---4---------------------4----|---------4------------4--------|
|-2----------------------------|------2----------2-------------|
|----------------------------3-|---3-------0-(0)---------------|


  A                                           G
   +E      E     +S      E.      Q       E     E
|-(22)b24-22b24-(22)b24-22b24---22b24---24b26-24b27--|
|----------------------------------------------------|
|----------------------------------------------------|
|----------------------------------------------------|
|----------------------------------------------------|
|----------------------------------------------------|
|
|   E      E      E           E +E    E  E     E
|----------------------------------------------------|
|-----------------------------0-(0)------------------|
|-----------------4-------------------4--------------|
|----------4-----------------------------4-----------|
|---2------------------------------------------0-----|
|----------------------------------------------------|


   +Q       Q    S  S  S  S  E      S  S
|-(24)b27-------15-13-12-13-12tr13----12-|
|----------------------------------------|
|----------------------------------14----|
|----------------------------------------|
|----------------------------------------|
|----------------------------------------|
|
|   E     E E E  E     E     E      E
|----------------------------------------|
|---------2------2-----------------------|
|-----------4----------4-----------------|
|-------------4--------------4-----------|
|---0-------------------------------0----|
|----------------------------------------|


  A                                         F
                                             ~~
         |--3--|  |------6------|
   S  S  S  S  S  S  S S  S  S  S  E   E  E  E
|-----------------------------------------------|
|-15-13-12h13p12-13p12--------------------------|
|----------------------2-----------------14-14--|
|------------------------14p12s10-12h=14--------|
|-----------------------------------------------|
|-----------------------------------------------|
|
|  E     E        E       E       +E   E  E  E
|-----------------------------------------------|
|-------------------------0-------(0)-----------|
|-----------------4--------------------4--------|
|--------4--------------------------------4-----|
|--2--------------------------------------------|
|--------------------------------------------3--|


             D                A                     G
                                                     ~~~
   +E   E  E  E  E  E  E  E    +H         +E   E  E  E
|-------------------0----12-|-(12)-------(12)----12----|
|------12-12-13-13----------|-----------------------15-|
|-(14)----------------14----|-----------------14-------|
|---------------------------|--------------------------|
|---------------------------|--------------------------|
|---------------------------|--------------------------|
|
|   E   E  E  E +E  E  E  E     E  E E E  +E   E  E  E
|---------------------------|--------------------------|
|---------------------------|----------0--(0)----------|
|-------------------------4-|--------4---------4-------|
|----------4-----------4----|------4--------------4----|
|-------2-----------2-------|---2--------------------0-|
|---3---------0-(0)---------|--------------------------|


 ~~~~~~
   +Q.      E  +E   E  S  S  E
|----------------------------------|
|-(15)-----13-(13)-12-13p12--------|
|---------------------------14b16--|
|----------------------------------|
|----------------------------------|
|----------------------------------|
|
|   E  E E  E   E   E  E     E
|----------------------------------|
|------2--------2------------------|
|--------4----------4--------------|
|-----------4----------4-----------|
|---0------------------------0-----|
|----------------------------------|


  A                       F                     D
              ~~~~~~~                                         ~~
                                                                |---3---|
   +E   E  E  E  +Q     Q      S  S  S  S  S  S  S  S  S   S  E E  E    E
|---------------------------|-----------------------------12--------------|
|---------------------------|-------12-13-12-15-13-12--------13-----------|
|-(14)-14-14-14-(14)---14---|-12-14-------------------14----------12---14-|
|---------------------------|---------------------------------------------|
|---------------------------|---------------------------------------------|
|---------------------------|---------------------------------------------|
|
|   E   E  E  E  +E  E  E E    E     E     E     E    +E      E E    E
|---------------------------|---------------------------------------------|
|-------------0--(0)--------|---------------------------------------------|
|----------4---------4------|----------------------------------------4----|
|-------4---------------4---|--------------4--------------------4---------|
|---2-----------------------|--------2------------------------2-----------|
|-------------------------3-|--3-----------------0----(0)-----------------|


  A                   G
   ~~
   H        +E   E  E  E    H        H
|-12-------(12)----15-12-|-12--------------------|
|---------------15-------|-----------------------|
|------------------------|-----------------------|
|------------------------|-----------------------|
|------------------------|-----------------------|
|------------------------|-----------------------|
|
|                                      |-3-|
|  E E E E  +E   E  E  E   +E  E E E E S S S E E
|------------------------|-----------------------|
|--------0--(0)----------|-----2-----------------|
|------4---------4-------|-------4-------------0-|
|----4--------------4----|---------4-7-5-7-5-4-0-|
|--2-------------------0-|-(0)-------------------|
|------------------------|-----------------------|


 Outro Chorus
  A                               G
                       ~~~                                  ~~~
  E E  S  S  S  S  S   E.    S  S E    Q     S  S  S  S  S  E.    E  e
|-----------------------------------|-------12-12-12-12---------------------|
|-----13-13-13-13-------------------|-------13-13-13-13-15----------13b13.5-|
|-----12-12-12-12-14--14----14p12---|----------------------14----14---------|
|-----------------------------------|---------------------------------------|
|---0-------------------------------|---------------------------------------|
|-----------------------------------|---------------------------------------|
|
| E E  E     E    +E      E  E    E   +E  E  E     E     E     E  E  E
|-----------------------------------|---------------------------------------|
|------------0----(0)---------------|-----2--------------2------------------|
|------4------------------4---------|--------4-----------------4------------|
|---4------------------------4------|--------------4--------------4---------|
|-2-------------------------------0-|-(0)----------------------------0------|
|-----------------------------------|---------------------------------------|


  A                         F                D
                                                                 ~~~
  Q   E  E     +E      E  E  E    E     E  E  E  S   S  S  S  S  E.
|---------------------12-15-12-|----------------12--------------------|
|-------15b17-(15)b17----------|-15b16-15-13-15-----13-13-13-15-14----|
|------------------------------|--------------------------------------|
|------------------------------|--------------------------------------|
|------------------------------|--------------------------------------|
|------------------------------|--------------------------------------|
|
| E E E  E     +E      E  E  E   +E     E  E  E +E      E     E     E
|------------------------------|--------------------------------------|
|--------0-----(0)-------------|--------------------------------------|
|-----4----------------4-------|------------------------------------4-|
|---4---------------------4----|-----------4------------------4-------|
|-2----------------------------|--------2---------------2-------------|
|----------------------------3-|-(3)----------0-(0)-------------------|


  A
                          ~~~
   +E  E  S  S  S  S  S   E.    E  E
|------------------------------------|
|-(14)---13-13-13-13-15-----------13-|
|--------12-12-12-12-----14----14----|
|------------------------------------|
|------------------------------------|
|------------------------------------|
|
|   E  E  E     E    +E      E  E  E
|------------------------------------|
|---------------0----(0)-------------|
|---------4------------------4-------|
|------4------------------------4----|
|---2------------------------------0-|
|------------------------------------|


  G                                     A                                          F
                      ~~~
  Q    S  S  S  S  S  E.    E  e        Q    S     S  S     S  S     S  S     S  E  E
|-----12-12-12-12---------------------|-----------12-------12-------12-------12-12-------|
|-----13-13-13-13-15----------13b13.5-|-----15b17----15b17----15b17----15b17-------15b17-|
|--------------------14----14---------|--------------------------------------------------|
|-------------------------------------|--------------------------------------------------|
|-------------------------------------|--------------------------------------------------|
|-------------------------------------|--------------------------------------------------|
|
| E E  E     E     E     E  E  E        E E  E        E       +E        E        E  E
|-------------------------------------|--------------------------------------------------|
|---2--------------2------------------|---------------0-------(0)------------------------|
|------4-----------------4------------|------4--------------------------4----------------|
|------------4--------------4---------|---4--------------------------------------4-------|
|-0----------------------------0------|-2------------------------------------------------|
|-------------------------------------|---------------------------------------------3----|


                D
   +E      e  e  e  S   S  S  S  S  S  S  S
|------------------12--------12-------------|
|-(15)b17-15-13-15-----13-15----13-------13-|
|----------------------------------14-12----|
|-------------------------------------------|
|-------------------------------------------|
|-------------------------------------------|
|
|  +E      E  E  E +E      E     E     E
|-------------------------------------------|
|-------------------------------------------|
|--------------------------------------4----|
|-------------4------------------4----------|
|----------2---------------2----------------|
|--(3)-----------0-(0)----------------------|


  A                                      G
                  |-----6------|  |-----6------|
   Q    S S  S S  S  S  S S  S S  S  S S  S  S S
|------------------------------------------------|
|------------------------------------------------|
|-14---------------------------------------------|
|------------------------------------------------|
|------17p0-15p0-15p=0-17p0-15p0-17p15p0-17p15p0-|
|------------------------------------------------|
|
|  E E  E    E   +E       E       E       E
|------------------------------------------------|
|------------0---(0)-----------------------------|
|-------4-----------------4----------------------|
|----4----------------------------4--------------|
|--2--------------------------------------0------|
|------------------------------------------------|


                                                   ~~
   |-----6------|  |-----6------|  |-3--|
   S  S S  S  S S  S  S S  S  S S  S  S S E  S  S  E
|-----------------------------------------------------|
|-----------------------------------------------------|
|-------------------------------------------12-14-14--|
|-----------------------------------------------------|
|-17p15p0-17p15p0-17p15p0-17p15p0-17p15p0-0-----------|
|----------------------------------0------0-----------|
|
|  E       E       E       E       E      E  E     E
|-----------------------------------------------------|
|----------2-----------------------2------------------|
|------------------4----------------------4-----------|
|--------------------------4-----------------4--------|
|--0-----------------------------------------------0--|
|-----------------------------------------------------|


  A                     F
    ~~~~
   +H         +E   E  E  E
|--------------------------|
|--------------------12-13-|
|-(14)-------(14)-14-------|
|--------------------------|
|--------------------------|
|--------------------------|
|
|   E  E E E  +E   E  E  E
|--------------------------|
|----------0--(0)----------|
|--------4---------4-------|
|------4--------------4----|
|---2----------------------|
|------------------------3-|


                D                        A                       G
   +E   E  S  S  E  +E   S  S  S  E.      +E   E  E  E  E   Q    E
|--------------------------------------|---------------------------|
|-(13)p12-13p12------------------------|---------------------------|
|---------------14-(14)----------------|---------------------------|
|-----------------------12s10-12s14----|-(14)-10-12----10--------0-|
|--------------------------------------|------------10-----12\-----|
|--------------------------------------|---------------------------|
|
|  +E   E  E     E  +E   E     E     E     E   E  E  E +E   E  E E
|--------------------------------------|---------------------------|
|--------------------------------------|-------------0-(0)---------|
|------------------------------------4-|----------4---------4------|
|----------4-------------------4-------|-------4---------------4---|
|-------2----------------2-------------|---2---------------------0-|
|--(3)-----------0--(0)----------------|---------------------------|


  G                                                   A                                       F
  E.     S      E      E      S      E.      Q        E   S  S  S  S  S  S  S   S  S  S  S  S  S  S
|-5b7----7------7------8------8-----10------12------|-------17-------17--------17-------17----17-17-|
|-8-----10b12-(10)b12-11b13-(11)b13-13b15---15b17---|---/17----15s17----15s17-----15s17----17-------|
|---------------------------------------------------|-----------------------------------------------|
|---------------------------------------------------|-----------------------------------------------|
|---------------------------------------------------|-----------------------------------------------|
|---------------------------------------------------|-----------------------------------------------|
|
| E   E         E      E      E           E  E    E   E   E     E     E    +E      E     E     E
|---------------------------------------------------|-----------------------------------------------|
|-----2-----------------------2---------------------|-----------------0----(0)----------------------|
|---------------4-------------------------4---------|-----------4------------------4----------------|
|----------------------4---------------------4------|-----4------------------------------4----------|
|-0-----------------------------------------------0-|-2---------------------------------------------|
|---------------------------------------------------|------------------------------------------3----|


                     D                  A
   S   S  S  S  S  S  S  S  T   T  T  T  T  T  T  T  Q
|-17--19-19-19-19-20-17-17-----17-----------------------------|
|--------------------------20-----20p17-----------------------|
|---------------------------------------17----17----19b21-----|
|------------------------------------------19----19-----------|
|-------------------------------------------------------------|
|-------------------------------------------------------------|
|
| +E      E     E     E    +E            E           E    E
|-------------------------------------------------------------|
|-------------------------------------------------------------|
|---------------------------------------------------------4---|
|---------------4------------------------------------4--------|
|---------2------------------------------2--------------------|
|-(3)-----------------0----(0)--------------------------------|


           D
                  |--3--|
   +E       S  S  E  E  E  S  S  S  S  S  S  S   S
|--------------------------------------------------:
|--------------------------------------------------:
|-(19)b21==19-19-19-19-19-19-19-19-19-19-19-19r-19-:
|--------------------------------------------------:
|--------------------------------------------------:
|--------------------------------------------------:


            |-----5-----|
   S  S  E  S  S  S  S  S  S  S  E    S  S  S  S         H    H
|-----------------------------------------------------:------------*|
|-----------------------------------------------------:------------*|
|-19p17-19-19p17----19-17---------------------17b17.5-:------------*|
|----------------19-------19-17---------17-19---------:-19---------*|
|-------------------------------16\-/19---------------:------------*|
|-----------------------------------------------------:------------*|


Duration Legend
---------------
W - whole; H - half; Q - quarter; E - 8th; S - 16th; T - 32nd; X - 64th; a - acciaccatura
+ - note tied to previous; . - note dotted; .. - note double dotted
Uncapitalized letters represent notes that are staccato (1/2 duration)
Irregular groupings are notated above the duration line
Duration letters will always appear directly above the note/fret number it represents the
duration for.  Duration letters with no fret number below them represent rests.  Multi-
bar rests are notated in the form Wxn, where n is the number of bars to rest for.  Low
melody durations appear below the staff

Tablature Legend
----------------
 h   - hammer-on
 p   - pull-off
 b   - bend
 pb  - pre-bend
 r   - bend release (if no number after the r, then release immediately)
 /\  - slide into or out of (from/to "nowhere")
 s   - legato slide
 S   - shift slide
  - natural harmonic
[n]  - artificial harmonic
n(n) - tapped harmonic
 ~   - vibrato
 tr  - trill
 T   - tap
 TP  - trem. picking
 PM  - palm muting
\n/  - tremolo bar dip; n = amount to dip
 \n  - tremolo bar down
 n/  - tremolo bar up
/n\  - tremolo bar inverted dip
 =   - hold bend; also acts as connecting device for hammers/pulls
   - volume swell (louder/softer)
 x   - on rhythm slash represents muted slash
 o   - on rhythm slash represents single note slash

Misc Legend
-----------
 |  - bar
||  - double bar
||o - repeat start
o|| - repeat end
*|  - double bar (ending)
 :  - bar (freetime)
 $  - Segno
 &  - Coda
Tempo markers -  = BPM(8/16=s8/s16), where s8 = swing 8ths, s16 = swing 16ths


***************************************************************************************
* Generated using Power Tab Editor by Brad Larsen - http://powertab.guitarnetwork.org *
***************************************************************************************
Comments