Sani-t - Song 8 Chords & Tabs

 

Song 8 Chords & Tabs

Sani-t Chords & Tabs

Version: 1 Type: Tab 0 ratings
1 star 2 stars 3 stars 4 stars 5 stars
comments

Song 8 Tab

Sani-T? | song 8.
Tabbed by Freak | FREAK_999@hotmail.com.
  
in order for you to use these songs. Note to include the artise name before playing song. hope you injoy!

         (into) also ues as ending
[----------------------------------------------------]
[----------------------------------------------------]
[----------------------------------------------------]
[---0---0---0---0---0---0---0---0---0---0---0---0-0--]
[-0---1---1---2---1---1---0---1---1---2---1---1---0--]
[----------------------------------------------------]
[ Tab from: http://www.guitartabs.cc/tabs/s/sani_t/song_8_tab.html ]
         HEAVY DISTORTION: chorus x6 (palm mute) 
[----------------------------------]
[----------------------------------]
[----------------------------------]
[-0-0-0-0-1-1-1-1-2-2-2-2-1-1-1-1--]
[-0-0-0-0-1-1-1-1-2-2-2-2-1-1-1-1--]
[-0-0-0-0-1-1-1-1-2-2-2-2-1-1-1-1--]

  HEAVY DISTORTION:verse x5 (no palm mute)
[------------------------------------------]
[------------------------------------------]
[------------------------------------------]
[-2--2-5-4--4-7-5--5-10-9--9-10-9-7-5-4-2--]
[-2--2-5-4--4-7-5--5-10-9--9-10-9-7-5-4-2--]
[-0--0-3-2--2-5-3--3-8--7--7-8--7-5-3-2-0--]

order to play: [chorus]
               [verse]
               [chorus]
               [verse]
               [end]=intro, mabey slower untill stop!

                                   Thanx!
 
:: Ultimate Guitar Archive :: 
http://www.ultimate-guitar.com 

Comments