Sani-t - Beach Fire Friends Chords & Tabs

 

Beach Fire Friends Chords & Tabs

Sani-t Chords & Tabs

Version: 1 Type: Tab 0 ratings
1 star 2 stars 3 stars 4 stars 5 stars
comments

Beach Fire Friends Tab

Freak ( guitarest from SANI-T?)| "beach,fire,friends".
Tabbed by Freak | FREAK_999@hotmail.com.
  
FREAK_999@hotmail.com  FREAKMUSIC:
Title: "Beach,fire,& old friends (musical)
Artist: SANI-T?

E[----------------------------------------------------------------]
B[----------------------------------------------------------------]
G[----------------------------------------------------------------]
D[-----0-------0-------0---5--------0-------0-------0---5-7-9-----]
A[---9---9---9---9---9---9---7----9---9---9---9---9---9-------7---]
E[-7-------7-------7------------7-------7-------7-----------------]
[ Tab from: http://www.guitartabs.cc/tabs/s/sani_t/beach_fire_friends_tab.html ]
E[------------------------------------------------------]
B[------------------------------------------------------]
G[------------------------------------------------------]
D[-----0-------0-------0---5---5-7-12-10-9-10-9~5---7---]
A[---9---9---9---9---9---9---7--------------------7-----]
E[-7-------7-------7------------------------------------]

E[-----------------------------------------------------------------0--]
B[-----------------------------------------------------------------3--]
G[-----------------------------------------------0-----------------2--]
D[---------0-----------0-----------0-------0-----7----------0------2--]
A[-----9-----9-----9-----9-----7-----7-------7---7------5---5------2--]
E[-7-7---7-----7-7---7-----5-5---5-----5-5-----5-5--3-3---3-3--0-0-0--]

 
:: Ultimate Guitar Archive :: 
http://www.ultimate-guitar.com 

Comments