Sandwich - Ultrasound Chords & Tabs

 

Ultrasound Chords & Tabs

Sandwich Chords & Tabs

Version: 2 Type: Tab 0 ratings
1 star 2 stars 3 stars 4 stars 5 stars
comments

Ultrasound Tab

   
Ultrasound - Sandwich

tabbed by: Joshua Flores
Intro:

riff 1
e|----------------------|
b|----------------------|
g|----13------13b15-----| (4x)
d|----x-------x---------|
a|----11------11--------|
E|----------------------|

riff 2
e|---------------------|
b|---------------------|
g|--14--------11-------| (3x)
d|--x---------x--------|
a|--12--------9--------|
E|---------------------|

riff 3		      riff 4
e|------------|      |------|
b|------------|      |------|
g|--14---11---| (2x) |--13--|
d|--x----x----|      |--x---|
a|--12---9----|      |--11--|
E|------------|      |------|
[ Tab from: http://www.guitartabs.cc/tabs/s/sandwich/ultrasound_tab_ver_2.html ]
verse 1: riff 3 (3x)
	 riff 4 (1x)
pre-chorus: C5 - B5
chorus: G5 - B5 - C5
verse 2: (same as verse 1)
pre-chorus: C5 - B5
chorus: G5 - B5 - C5

bridge:
e|--------------------|
b|--------------------|
g|--7--\---9----------|
d|--x--\---x----------|
a|--5--\---7----------|
E|--------------------|

slow part:
e|-----15-15-17-17-15-15-----|
b|--17-------------------17--|
g|---------------------------|
d|---------------------------|
a|---------------------------|
E|---------------------------|

e|-----15-15-17-17-15-15-17-19b21--|
b|--17-----------------------------|
g|---------------------------------|
d|---------------------------------|
a|---------------------------------|
E|---------------------------------|
Comments