Sandwich - Two Trick Pony Chords & Tabs

 

Two Trick Pony Chords & Tabs

Sandwich Chords & Tabs

Version: 5 Type: Tab 0 ratings
1 star 2 stars 3 stars 4 stars 5 stars
comments

Two Trick Pony Tab

Band: Sandwich
Song: Two Trick Pony
Tabbed by: Renz
Tuning : Standard, kahit drop D kaya makuha pero standard ang tuning ng sandwich
Instrument used : 2 Guitars

/*Punyetang mga tabber, di man lang pinagtyagaan ang isang magandang kantang toh*/

Legend
/=Slide Up
\=Slide Down
~=Let Ring/Vibrato
x=Light/Finger Mute
x=Unnoted/Left Hand Mute

Intro (Palm Mute)

GUitar 1 lang

E|---------------------|
B|---------------------|
G|---------------------|
D|---------------------|
A|--4-0-0-0-4-0-0------|
E|----------------3-3--|

Pick Scrape bago pumasok drums

Guitar 1 + 2

E|-----------------------|
B|-----------------------|
G|-----------------------|
D|-----------------------|
A|------------4-0-0------|
E|--3/5-5--5----5-5-3-3--|

ulit Intro Walang Palm Mute

Bass

Parehas lang sa gitara

Verse

Bass

G|-----------------------|
D|-----------------------|
A|------------------4-5--|
E|--3-5-5--3-5--3-5------|

Guitar 1 

Palm muted na intro

Guitar 2

Wala

Bago magchorus, heavy slide down sa gitara, kahit kaninong gitara

Chorus

Bass

G|-----|
D|--0--|
A|-----|paulit ulit
E|-----|

G|----------------------|
D|----------------------|
A|-----------4-0-0------|
E|--3/5-5--3-------3-3--|

Tapos yung patapos na chorus mahabang D na paulit ulit

Guitar 1

D5 na mahaba tapos ulitin yung intro
[ Tab from: http://www.guitartabs.cc/tabs/s/sandwich/two_trick_pony_tab_ver_5.html ]
GUitar 2 Chorus o kung ano mang FX na tunong outer space
	Downstroke
E|-------0--|
B|-----3-3--|
G|---2---2--|
D|-0--------|
A|----------|
E|----------|

Intro na Riff ulit

Tapos dun sa mahabang D tugtugin ulit yung pluck Downstroke tapos eto yung panapos
(Bandang, I look around and its you I thought I'd find)

E|--5--|
B|--3--|
G|--2--|
D|-----|
A|-----|
E|-----|

Bridge

Eto yung mabilis na picking

G|------------------|
D|------------------|
A|--4-0-4---4h5-55--|
E|--------3---------|

Guitar 1

E|--------------------|
B|--------------------|
G|--------------------|
D|--------------------|
A|--4--0--4-----5555--|
E|-----------3--------|

Guitar 2

Papasok lang after mga ilang bars

E|--9----9---10-10-10-10--|
B|----10---8--------------|
G|------------------------|
D|------------------------|
A|------------------------|
E|------------------------|

After bridge yung mga nawawalang instrumento

Una Gitara, tapos may pick scrape tsaka drum fill sa bandang gitna

Then Drum and Bass lang tapos papasok sa gitna ang gitara with 

Guitar 1

E|---------------|
B|---------------|
G|---------------|
D|---------------|
A|---------------|
E|--3h5-3h5-3h5--|

Guitar 2 (Sa bandang pa chorus na)

E|--5-5-5-5-5-5-5-5--|
B|--x-x-x-x-x-x-x-x--|
G|--2-2-2-2-2-2-2-2--|
D|-------------------|
A|-------------------|
E|-------------------|

Tapos pakinggan niyo nalang yung patapos

Sakin pinakamaayos yung iba, punyeta...
Comments