Sandwich - Two Trick Pony Chords & Tabs

 

Two Trick Pony Chords & Tabs

Sandwich Chords & Tabs

Version: 4 Type: Tab 0 ratings
1 star 2 stars 3 stars 4 stars 5 stars
comments

Two Trick Pony Tab

Two Trick Pony
Intro:
E------------------------------------------|
B------------------------------------------|
G------------------------------------------|
D----------------(X3)----------------------|
A-4*-0*-0*-4*4*-0*0*---------4*-0*-0*-4*4*-|
E-------------3*-0*------------------------|

Verse:
E-----------------------------------------|
B-----------------------------------------|
G-----------------------------------------|  (just find out the amount)
D-----------------------------------------|
A-4*-0*-0*-4*4*-0*0*----------------------|
E-------------3*-0*-----------------------|
[ Tab from: http://www.guitartabs.cc/tabs/s/sandwich/two_trick_pony_tab_ver_4.html ]
Chorus:
E-------------------------------------------------------------|
B-------------------------------------------------------------|
G---------------------------------------(X2)------------------|
D-777777-------------------------------------7777777777777----|
A-555555-4-0-0-44-00-----4-0-0-44-00---------5555555555555----|
E--------------------3-0-------------3-0----------------------|

Fill1:
E-------------------|
B-------------------|
G-------------------|
D-------------------|   JUST FIGURE IT OUT AGAIN
A-4-0-0-44-00-------|
E-------------3-0---|

FILL ENDING:
E----------------|
B----------------|
G----------------|    TILL FADE(IT IS USED ALSO IN THE FILL ON THE 2ND CHORUS)
D----------------|
A-4-0-4-0---5----|
E---------3------|

well it is done, it is from adio the pogi I made it 2 min. before I tab it so enjoy!!!!!!!!!!!
Comments