Sandwich - Sugod Chords & Tabs

 

Sugod Chords & Tabs

Sandwich Chords & Tabs

Version: 2 Type: Tab

Sugod Tab

   
-------------------------------------------------------------------------------
			     Sugod - Sandwich
-------------------------------------------------------------------------------
Tabbed by: yeoj321
Email: ulolzkie_24@yahoo.com

Tuning: Dropped D
| /  slide up
|   slide down
| h  hammer-on
| x  Mute note
| ^  bend
===============================================================================

*Pakinggan nio ung kanta para mkuha nio tyming*

Intro: Drums muna…tapos…e2
(bale, magsasabay ung guitar 1 at guitar 2)

 Actually the first lead is based on the D chord (the key of the song)
Guitar 1   Play 4 times
Play 1 time muna tpos sasabayan ng guitar 2
e|-----------------------------------------------------------------|
B|----3--3---------(0)-(0)---3-x-3---------(0)-(0)-----------------|
G|-----------2--2---4---4------------2--2---4---4------------------|
D|-----------------------------------------------------------------|
A|-----------------------------------------------------------------|
D|-----------------------------------------------------------------|

 Guitar 2  pasok sa pangalawang play ng guitar 1
   Play 3 times
e|----2--2-------------------2-x-2---------------------------------|
B|-----------2--2---3---3------------2--2---3---3------------------|
G|-----------------------------------------------------------------|
D|-----------------------------------------------------------------|
A|-----------------------------------------------------------------|
D|-----------------------------------------------------------------|

(you can play either the open b string or the the 4th on the g string, same note, just
on which sound you prefer.)

I can't quite pick the second guitar but going that the first note is definitely a F# on
first string, theres a 3rd interval (D - E - F#)

Chorus: Sugod mga kapatid!!!

e|-----------------------------------------------------------------------------|
B|-----------5---7---9---9—7-5-7--5----------------5---6---5/6\5/6\5---3-------|
G|-----5h7-----------------------------------5h7-------------------------------|
D|-----------------------------------------------------------------------------|
A|-----------------------------------------------------------------------------|
D|-----------------------------------------------------------------------------|

Verse: light palm mute with distortion…kelangan ng timing..!!!
[ Tab from: http://www.guitartabs.cc/tabs/s/sandwich/sugod_tab_ver_2.html ]
  I text mo na sina shaun at jopet…
e|---------------------------------------------------------------------------|
B|---------------------------------------------------------------------------|
G|---------------------------------------------------------------------------|
D|---3/5/7/9------9---7---7---5---5------------------------------------------|
A|---3/5/7/9------9---7---7---5---5------------------------------------------|
D|---3/5/7/9------9---7---7---5---5------------------------------------------|


Lead fill in… “ti niw ni niw”
e|---17---------13-----------------------------------------------------------|
B|--------15---------15^-----------------------------------------------------|
G|---------------------------------------------------------------------------|
D|---------------------------------------------------------------------------|
A|---------------------------------------------------------------------------|
D|---------------------------------------------------------------------------|


Pre-chorus…isang linggong pinag ipunan… Palm mute po ito…timing nio na lang..
e|---------------------------------------------------------------------------|
B|---------------------------------------------------------------------------|
G|---------------------------------------------------------------------------|
D|---333333---7777----9999---------------------------------------------------|
A|---111111---7777----9999---------------------------------------------------|
D|---111111---5555----7777---------------------------------------------------|

Repeat intro
Repeat chorus

Adlib:

e|-----------------------------------------------------------------------------|
B|-----------5---7---9---9—7-5-7--5----------------5---6---5/6\5/6\5---3-------|
G|-----5h7-----------------------------------5h7-------------------------------|
D|-----------------------------------------------------------------------------|
A|-----------------------------------------------------------------------------|
D|-----------------------------------------------------------------------------|
Repeat pre-chorus
Repeat chorus 2x

Outro:
e|-----------------------------------------------------------------|
B|----3--3---------(0)-(0)---3-x-3---------(0)-(0)-----3^----------|
G|-----------2--2---4---4------------2--2---4---4------------------|
D|-----------------------------------------------------------------|
A|-----------------------------------------------------------------|
D|-----------------------------------------------------------------|

-END-