Sandwich - Nginig Chords & Tabs

 

Nginig Chords & Tabs

Sandwich Chords & Tabs

Version: 1 Type: Tab 0 ratings
1 star 2 stars 3 stars 4 stars 5 stars
comments

Nginig Tab

Artist: Sandwich
Song:nginig
Album:
tabbed by:Nefas_fitz
Message:please rate

Intro
E|-----------------------------------------------------------|
B|-----------------------------------------------------------|
G|-----------------------------10----------------------------|        
D|--7---9--10---3----7--9--10--10----------------------------|
A|--7---9--10---3----7--9--10--8-----------------------------|
E|--5---7--8----1----5--7--8---------------------------------|
[ Tab from: http://www.guitartabs.cc/tabs/s/sandwich/nginig_tab.html ]
E|-----------------------------------------------------------|
B|-----------------------------------------------------------|
G|-----------------------------10----------------------------|        
D|--7---9--10---3----7--9--10--10----------------------------|
A|--7---9--10---3----7--9--10--8-----------------------------|
E|--5---7--8----1----5--7--8---------------------------------|
Ref.
E|-----------------------------------------------------------|
B|-----------------------------------------------------------|
G|-----------------------------------------------------------|        
D|--2-2-2--3-3-----------------------------------------------|
A|--2-2-2--3-3-3---------------------------------------------|
E|--0-0-0--1-1-1---------------------------------------------|

chorus

E|-----------------------------------------------------------|
B|-----------------------------------------------------------|
G|-----------------------------10----------------------------|        
D|--7---9--10---3----7--9--10--10----------------------------|
A|--7---9--10---3----7--9--10--8-----------------------------|
E|--5---7--8----1----5--7--8---------------------------------|


un lng... jaz listen to the pattern.. narinig ko lng 2 sa studio 23.. ala kc cd eh.. cnxa...
Comments