Sandwich - Nahuhulog Chords & Tabs

 

Nahuhulog Chords & Tabs

Sandwich Chords & Tabs

Version: 1 Type: Bass Tab 0 ratings
1 star 2 stars 3 stars 4 stars 5 stars
comments

Nahuhulog Bass Tab

INTRO/VERSE
G----------------------------|
D----------------------------|
A----------------------------|
E-3333h55333222--------------|

CHORUS
G----------------------------|
D----------------------------|
A-----------------111-111----|
E-000-000-111-111------------|

BRIDGE 1ST PART
G----------------------------|
D----------------------------|
A-------------000000222222---|
E-333333222222---------------|
[ Tab from: http://www.guitartabs.cc/tabs/s/sandwich/nahuhulog_btab.html ]
BRIDGE 2ND PART
G----------------------------|
D----------------------------|
A---------00--22-------------|
E-33--22---------------------|

BRIDGE 3RD PART
G----------------------------|
D----------------------------|
A-------------000000222222---|
E-333333222222---------------|

ENDING
G----------------------------|
D----------------------------|
A---------------5------------|
E-3------5-------------------|


This is my first time to make a bass tab,
masaya din palang mag bass.....
4 da timing pakinggan nyo na lng
4 comments nd sugestion mssge me je_urh995@yahoo.com (friendster na lng!)
Comments