Sandwich - Maybe Chords & Tabs

 

Maybe Chords & Tabs

Sandwich Chords & Tabs

Version: 2 Type: Tab 0 ratings
1 star 2 stars 3 stars 4 stars 5 stars
comments

Maybe Tab

Maybe - Sandwich

tabbed by : Joshua Flores
2csb

Intro

e|---------------------------|
b|---------------------------|
g|---13------------13-\-15---|
d|---x--(let ring)-X----x----| (2x)
a|---11------------11-\-13---|
E|---------------------------|

guitar 1:
e|----------------------------------------------------|
b|----------------------------------------------------|
g|---13-13\11-11-11\9-9-9\8-8-8\4-4\6--6--------------|
d|---x--x--x--x--x--x-x-x-x-x-x-x-x-x--x-------2h4-2--| (2x)
a|---11-11\9--9--9-\7-7-7\6-6-6\2-2\4--4--2h4---------|
E|----------------------------------------------------|
[ Tab from: http://www.guitartabs.cc/tabs/s/sandwich/maybe_tab_ver_2.html ]
guitar 2:
e|-----------------------------------------|
b|-----------------------------------------|
g|-----------------------------------------|
d|--------------------------------2h4-2----|
a|----11\9--9\7--7\6--\2-2/4--2h4----------|
E|--0--------------------------------------|

chorus:
e|----------------------------------------------------|
b|-----------------9-9-9-9-\-11-11---9-9-9-9-\-11-11--|
g|--7-7-7--6-6-6---x-x-x-x-\-x--x----x-x-x-x-\-x--x---|(2x)
d|--7-7-7--6-6-6---6-6-6-6-\-8--8----6-6-6-6-\-8--8---|
a|--5-5-5--4-4-4--------------------------------------|
E|----------------------------------------------------|

e|--12-12-11-11-9-7h9-7---12-12-11h12--14h16--20-20---
Comments