Sandwich - Humanda Ka Chords & Tabs

 

Humanda Ka Chords & Tabs

Sandwich Chords & Tabs

Version: 2 Type: Tab

Humanda Ka Tab

Song:    Humanda Ka
Artist:  Sandwich
Tuning:  Drop D - DADGBe
Tabbed by: JOMS >>nEw_sKin47@yahoo.com
I don’t know if that’s an flute or some audio effects...but this guitar
parts is 100% accurate...and don’t forget to lower the E string down to D..yaps!

Intro/Verse/Outro:
e-----------------------------------------------|   
B-----------------------------------------------|
G-----------------------------------------------|
D-----3-2---2-2-2-2----3-2-2-2------------------|
A-----3-2---2-2-2-2----3-2-2-2------------------|
D-----3-2---2-2-2-2----3-2-2-2------------------|
[ Tab from: http://www.guitartabs.cc/tabs/s/sandwich/humanda_ka_tab_ver_2.html ]
Guitar Parts (Flute)
e------------12--10--12--13--12--10--12---------|   
B----10--12-------------------------------------|
G-----------------------------------------------|
D-----------------------------------------------|
A-----------------------------------------------|
D-----------------------------------------------|

Verse:
e-----------------------------------------------|   
B-----------------------------------------------|
G-----------------------------------------------|
D-----3-2---2-2-2-2----3-2-2-2------------------|
A-----3-2---2-2-2-2----3-2-2-2------------------|
D-----3-2---2-2-2-2----3-2-2-2------------------|

Chorus:
e-----------------------------------------------|   
B-----------------------------------------------|
G-----------------------------------------------|
D-------5/7---7-7---8-8-8-8---5-----------------|
A-------5/7---7-7---8-8-8-8---5-----------------|
D-------5/7---7-7---8-8-8-8---5-----------------|

Intro:
Verse1: 
Chorus :(2x)
Verse2:
Chorus :(2x)
Outro: