Sandwich - Hairpin Chords & Tabs

 

Hairpin Chords & Tabs

Sandwich Chords & Tabs

Version: 2 Type: Tab 0 ratings
1 star 2 stars 3 stars 4 stars 5 stars
comments

Hairpin Tab

Hairpin - Sandwich

Intro:

guitar 1:
e|------------------------------------------------|
b|---7-7-7-7-7-------------7-7-7-7-7-7------------|
g|---x-x-x-x-x--7-7-7-7-7--x-x-x-x-x-x------------|
d|---4-4-4-4-4--x-x-x-x-x--5-5-5-5-5-5------------|
a|---5-5-5-5-5--5-5-5-5-5-------------------------|
E|------------------------------------------------|

Verse 1 & 2:

e|------------------------------------------------|
b|------------------------------------------------|
g|------------------------------------------------|
d|---\4-4-4--4------------------------------------|
a|---\5-5-5--5-4-4-4-4--4-2-2-2-2--2-2-2-2-2------|
E|-------------5-5-5-5--5-3-3-3-3--3-3-3-3-3------|

Chorus:
[ Tab from: http://www.guitartabs.cc/tabs/s/sandwich/hairpin_tab_ver_2.html ]
e|------------------------------------------------|
b|---7h8p7--7-7-7-7-8-8-8-8-10-10-10-10-10-10-10--|
g|---7------7-7-7-7-7-7-7-7-7--7--7--7--7--7--7---|
d|------------------------------------------------|
a|------------------------------------------------|
E|------------------------------------------------|

Is there a place where we can go?
we can leave it all behind
Is there a place where we can go?
No more secrets for us to hide

Chorus:
coz' sometimes what comes up
just won't go (2x) down

Running my fingers through your hair
i went to your room last night
i could still feel you there
trying to find my way back home
to many people but i'm all alone

[chorus]

nananana nananana ........

[chorus]
Comments