Sandwich - For Your Consideration Chords & Tabs

 

For Your Consideration Chords & Tabs

Sandwich Chords & Tabs

Version: 1 Type: Tab 0 ratings
1 star 2 stars 3 stars 4 stars 5 stars
comments

For Your Consideration Tab

   
-----------------------------------------------------------------------------
			     FOR YOUR CONSIDERATION - SANDWICH
-----------------------------------------------------------------------------
Tabbed by: sterero of the year
Email: jekko_alcantara@yahoo.com

from the andwich album "thanks to the moon's gravitational pull"

Tuning: EADGBe
[ Tab from: http://www.guitartabs.cc/tabs/s/sandwich/for_your_consideration_tab.html ]
Intro:
(timing not shown, listen to album for strumming pattern)
e|----------------------------------------------------------------------------|
B|----------------------------------------------------------------------------|
G|---------7------------------------------------------------------------------|
D|-222-444-7-77-44------------------------------------------------------------|
A|-222-444-5-77-44------------------------------------------------------------|
E|-000-222---55-22------------------------------------------------------------|

verse: palm mute the intro riff

chorus:("enjoy this time... before the line..." blablabla part)
e|---------------------------------------------------------------------------|
B|---------------------------------------------------------------------------|
G|---------------------------------------------------------------------------|
D|-2-2-2--4-4-4--7--7--7-(let ring the last chord)---------------------------|
A|-2-2-2--4-4-4--7--7--7-----------------------------------------------------|
E|-0-0-0--2-2-2--5--5--5-----------------------------------------------------|

i haven't figured out the lead fill-ins. sorry, next time

| /  slide up
| \  slide down
| h  hammer-on
| p  pull-off
| ~  vibrato
| +  harmonic
| x  Mute note
=============================================================================
Comments