Sandwich - Butterfly Carnival Chords & Tabs

 

Butterfly Carnival Chords & Tabs

Sandwich Chords & Tabs

Version: 3 Type: Tab 0 ratings
1 star 2 stars 3 stars 4 stars 5 stars
comments

Butterfly Carnival Tab

Butterfly Carnivale by Sandwich
Tabbed By: dixman
E-mail: dixman142003@yahoo.com

Intro:

E|---------------------------------------------|
B|---------------------------------------------|
G|---------------------------------------------|   4x
D|--22222-22222-2222/55555-55555-5555----------|
A|---------------------------------------------|
E|---------------------------------------------|

Chorus
E|---------------------------------------------|
B|---------------------------------------------|
G|--------------------77777-77777-7777---------|
D|--77777-77777-7777--77777-77777-7777---------|   4x
A|--77777-77777-7777--55555-55555-5555---------|
E|--55555-55555-5555---------------------------|

Verse1
E|--------0------------0-----------------------|
B|------0---0------------0---0-----------------|
G|--------- --0----7-------0-------------------|
D|--7--------------7---------------------------|   4x
A|--7--------------5---------------------------|
E|--5------------------------------------------|

Ref.
E|---------------------------------------------|
B|---------------------------------------------|
G|-7-----9-----6-----7-------------------------|
D|-7(8x)-9(8x)-6(8x)-7(8x)---------------------|   2x
A|-5-----7-----4-----5-------------------------|
E|---------------------------------------------|

(chorus)
[ Tab from: http://www.guitartabs.cc/tabs/s/sandwich/butterfly_carnival_tab_ver_3.html ]
Verse2(repeat verse1)

Ref.

Bridge
E|-------------------------------------------------|
B|-------------------------------------------------|
G|--------------77777-77777-7777-99999-99999-9999--|
D|-(bass first)-77777-77777-7777-99999-99999-9999--|  
A|--------------55555-55555-5555-77777-77777-7777--|
E|-------------------------------------------------|

E|-------------------------------------------------|
B|-------------------------------------------------|
G|-66666-66666-6666-77777-77777-7777---------------|
D|-66666-66666-6666-77777-77777-7777---------------|  
A|-44444-44444-4444-55555-55555-5555---------------|
E|-------------------------------------------------|

(chorus)

Verse1
So when you say you hide it
Pay the fine and
Don't regret your stars
But when you steal the pipe and
Blow the kisses
Oh you play your part

Ref.
When you feel you find it
Know you'll find it
Don't forget your heart
Because your soul is burning
Times are turning
No one stays the same

(chorus)

Verse2
Inside my mind you tracing
Face to face and
Wondering thru your waves
Regressing eyes are hollow
Soul is shallow
Oh you drain my heart

Ref.
Bridge

Butterfly...(carnivale) (4x)
Butterfly... (4x)
Fly!!!
(chorus)

Listen to the song, I know you'll figure it out! Tnx! Pls vote!
For comments pls email me ~dixman142003@yahoo.com~
Comments