Sandler Adam - The Thanksgiving Song Chords & Tabs

 

The Thanksgiving Song Chords & Tabs

Sandler Adam Chords & Tabs

Version: 1 Type: Tab 1 rating
1 star 2 stars 3 stars 4 stars 5 stars
comments

The Thanksgiving Song Tab

THE THANKSGIVING SONG
By Adam Sandler
As played on the CD "They're All Gonna Laugh At You"

Transcribed by Ray Tom (rtom24@yahoo.com)

This is a very simple chord progression.
Except for the bridge, the notes are picked with thumb and fingers.
Use your index finger to bar the chords as you shift positions.
You can even add a percussive slap on the strings with your picking hand
between chord shifts to get that jazzy beat feel. Listen to the CD
recording for lyrics and timing. Feel free to send me any feedback.
You should be able to figure it out no problem. It's as easy as pumpkin pie!
Have fun and have a Happy Thanksgiving! :) - Ray


Standard Tuning
[ Tab from: http://www.guitartabs.cc/tabs/s/sandler_adam/the_thanksgiving_song_tab.html ]
    Intro       Verse
E--------------------------------------------------------------5----
B----3----5-------3-----5-----7-----5---------3-----5-----7----5----
G----4----5-------4-----5-----7-----5---------4-----5-----7---------
D-------------------------------------------------------------------
A--------------------------------------------------------------5----
E----3----5-----3-----5-----7-----5---------3-----5-----7-----------


     Bridge                                 Ending
E----3-------2-------3-------5--------------3------3----------------
B----5-------3-------5-------5--------------5------3----------------
G----4-------4-------4-------5--------------4------4----------------
D----5-------4-------5-------4--------------5------5----------------
A----3-------2-------3-------5--------------3------5----------------
E----3-------2-------3-----------------------------3----------------
Comments