Sandler Adam - Lonesome Kicker Chords & Tabs

 

Lonesome Kicker Chords & Tabs

Sandler Adam Chords & Tabs

Version: 1 Type: Tab 0 ratings
1 star 2 stars 3 stars 4 stars 5 stars
comments

Lonesome Kicker Tab

This is kind of a slow song but pretty sweet...it is very easy to play


Verse/Pre-Chorus

[ Tab from: http://www.guitartabs.cc/tabs/s/sandler_adam/lonesome_kicker_tab.html ]
E:--------------------------
B:--------------------------
G:-----4~~~2~~~-------------
D:-2~~~4~~~2~~~-------------
A:-2~~~2~~~0~~~-------------
E:-0~~~---------------------

Chorus


E:--------------------------
B:--------------------------
G:-2~~~4~~~----6~~~---------
D:-2~~~4~~~2~~~6~~~---------
A:-0~~~2~~~2~~~4~~~---------
E:---------0~~~-------------

Thats it..i tod ya it was pretty easy..have fun!

->FiD
Comments