Sandler Adam - Hannuka Chords & Tabs

 

Hannuka Chords & Tabs

Sandler Adam Chords & Tabs

Version: 1 Type: Tab 3 ratings
1 star 2 stars 3 stars 4 stars 5 stars
comments

Hannuka Tab

These are the three chords, in order, for the verse and chorus...

|--0-----3----|
|--2-----2----|
|--2--1--3--1-|
|--0--2-----2-|
|--0--2-----2-|
|-------------|

Here is the order for the bridge
[ Tab from: http://www.guitartabs.cc/tabs/s/sandler_adam/hannuka_tab.html ]
|--2-----7--|
|--3-----7--|
|--2--1--7--|
|-----2-----|
|-----2-----|
|-----------|

No you don't strum only once, you strum as 
many times as you want. Listen to the song for 
the changes between chords. 
YOU CAN DO IT!!! 
The MettalMaggot
Marc
email with questions...
metallica4ever27@hotmail.com
Visit www.geocities.com/dwarfcatt for a fun time.
Comments