Sanderson Richard - Reality Chords & Tabs

 

Reality Chords & Tabs

Sanderson Richard Chords & Tabs

Version: 1 Type: Tab 0 ratings
1 star 2 stars 3 stars 4 stars 5 stars
comments

Reality Tab

2004-2-7 by oldskooler at web dot de

Richard Sanderson - "Reality" (La Boum I Soundtrack)

From the view of a guitarist, the only interesting part
in this "not so really guitar-song" is the solo, which starts
around 2:56 minutes, this is after the second verse.

There might be some minor mistakes (I'm sure there are) to the
original, maybe I update this TAB, if I found them, but this is
as far as I get by now ...

e|------------------------------------|------------------------------|
B|slideTo12~~-----------15------------|--------15b17b15--------------|
G|---------------14b16------16b14--12-|slTo16---------14b16b14----14-|
D|------------------------------------|------------------------13----|
A|------------------------------------|------------------------------|
E|------------------------------------|------------------------------|
  1     2        3    and   4      and 1    2  3      and      4  and
[ Tab from: http://www.guitartabs.cc/tabs/s/sanderson_richard/reality_tab.html ]
e|------12-----------------------------------------------------------------------|
B|--------15--12-----------------------------------------------------------------|
G|slTo16----------15--14-12-14--12-14b16-14b16-12--------------------------------|
D|------------------------------------------------14slideDownToInfinity-slideTo14|
A|-------------------------------------------------------------------------------|
E|-------------------------------------------------------------------------------|
  1  2  3 .   and .   4  .  and .  1     and   2  and   3   and   4     and
 
e|---------------------------------|------------------------------|
B|---------------------------------|-------15-----15--17b19b17-15-|
G|12------14b16b14-12-12--slideTo14|slTo16-----16-----------------|
D|----14---------------------------|------------------------------|
A|---------------------------------|------------------------------|
E|---------------------------------|------------------------------|
  1   and 2    and 3  and 4 and     1      and 2  and 3 and    4
 
e|17b19--17--15-----17b19--12--12~----12-----------------------------------------|
B|--------------15------------------15--15-12------------------------------------|
G|--------------------------------------------15--14-12-14-12-14b16-14b16-12--12~|
D|-------------------------------------------------------------------------------|
A|-------------------------------------------------------------------------------|
E|-------------------------------------------------------------------------------|
Comments