Sanderson Helen - West Coast Chords & Tabs

 

West Coast Chords & Tabs

Sanderson Helen Chords & Tabs

Version: 1 Type: Tab 0 ratings
1 star 2 stars 3 stars 4 stars 5 stars
comments

West Coast Tab

West Coast
 *harmonics    **repeat                                             _____
e|--0-----0-----0-|--0-----0-----0-|--0-----0-----0-|--0-----0-----0-|   |
b|----4-----4-----|----2-----2-----|----4-----4-----|----2-----2-----|   |
g|------4-----4---|------2-----2---|------4-----4---|------2-----2---|   |
d|----------------|----------------|----------------|----------------|   |
a|----------------|0---------------|----------------|0---------------|   |
e|0---------------|----------------|0---------------|----------------|   |
                                                                         |
e|--0-----0-----0-|--4-----0-----0-|--0-----0-----0-|--4-----4-----0-|   |
b|----0-----0-----|----0-----0-----|----0-----0-----|----0-----0-----|   |
g|------2-----2---|------4-----4---|------2-----2---|------4-----4---|   |
d|----------------|----------------|----------------|----------------|   |
a|2---------------|0---------------|2---------------|0---------------|   |
e|----------------|----------------|----------------|----------------|   |
                                                                         |
e|--7-----7-----0-|--5-----5-----0-|--7-----7-----0-|--5-----5-----0-|   |
b|----0-----0-----|----0-----0-----|----0-----0-----|----0-----0-----|   |
g|------8-----8---|------6-----6---|------8-----8---|------6-----6---|   |_**
d|----------------|----------------|----------------|----------------|   |
a|----------------|0---------------|----------------|0---------------|   |
e|0---------------|----------------|0---------------|----------------|   |
                                                                         |
e|--0-----0-----0-|--4-----0-----0-|--0-----0-----0-|--4-----5-----0-|   |
b|----0-----0-----|----0-----0-----|----0-----0-----|----0-----0-----|   |
g|------4-----4---|------4-----4---|------4-----4---|------4-----4---|   |
d|----------------|----------------|----------------|----------------|   |
a|4---------------|0---------------|4---------------|0---------------|   |
e|----------------|----------------|----------------|----------------|   |
                                                                     ____|
e|0-------4-------|5-------0-------|0-------4-------|9-------7---12*-|
b|0---------------|0---------------|0---------------|0-----------12*-|
g|4---------------|6---------------|4---------------|8---------------|
d|----------------|----------------|----------------|----------------|
a|4---------------|0---------------|4---------------|0---------------|
e|----------------|----------------|----------------|----------------|

e|--0-----0-----0-|--0-----0-----0-|--0-----0-----0-|--0-----2-----4-|--|
b|----4-----4-----|----2-----2-----|----4-----4-----|----2-----2-----|4-|
g|------4-----4---|------2-----2---|------4-----4---|------2-----2---|4-|
d|----------------|----------------|----------------|----------------|--|
a|----------------|0---------------|----------------|0---------------|--|
e|0---------------|----------------|0---------------|----------------|0-|

[ Tab from: http://www.guitartabs.cc/tabs/s/sanderson_helen/west_coast_tab.html ]
Comments