Sanctuary - Die For My Sins Chords & Tabs

 

Die For My Sins Chords & Tabs

Sanctuary Chords & Tabs

Version: 1 Type: Tab 0 ratings
1 star 2 stars 3 stars 4 stars 5 stars
comments

Die For My Sins Tab

   
DIE FOR MY SINS (Sanctuary)

Tabbed by Spyros Soldatos lordovol@mailbox.gr 
Homepage http://www.geocities.com/SunsetStrip/Frontrow/8281/

 Intro...............................
  E5   F#5   B5   C5    C5   B5    G5   F#5 G5    E5 
|----------|----------|----------|--------------|-----------|
|----------|----------|----------|--------------|-----------|
|----------|-4--------|-5----4---|--------------|-----------|
|-2----4---|-4----5---|-5----4---|-5----4---5---|-2---------|
|-2----4---|-2----5---|-3----2---|-5----4---5---|-2---------|
|-0----2---|------3---|----------|-3----2---3---|-0---------|

Rh.Fig.1..................................................

||--------------------------|----------------------------||
||*-------------------------|---------------------------*||
||--------------------------|----------------------------||
||--------------------------|----------------------------||
||*-----10-9---10-9---12-12-|-----10-9----10-9-9-9h10-5-*||
||--0-0------0------0-------|-0-0-------0----------------||


Rh.Fig.1..................................................

||--------------------------|----------------------------||
||*-------------------------|---------------------------*||
||--------------------------|----------------------------||
||--------------------------|----------------------------||
||*-----10-9---10-9---12-12-|-----10-9----10-9-9-9h10-5-*||
||--0-0------0------0-------|-0-0-------0----------------||
  1.You're      living in a   lie                    Your   
    tears repentance fills your eyes                 Your
    life, is not what it      seems to be        for you
  2.3. see additional lyrics

Rh.Fig.2.. Rh.Fig.1...............................................
  C5   D5
|---------|--------------------------|---------------------------------|
|---------|--------------------------|---------------------------------|
|-5----7--|--------------------------|---------------------------------|
|-5----7--|--------------------------|---------------------------------|
|-3----5--|------10-9---10-9---12-12-|-------10-9------10-9--9-9h10-5--|
|---------|--0-0------0------0-------|-0-0---------0-------------------|
breed  ago-  ny               Your  tortured mind will cry out take my 

Rh.Fig.2...........
 C5   D5
|------------------|
|------------------|
|-5---------7------|
|-5---------7------|
|-3---------5------|
|------------------|
  soul      die for

[ Tab from: http://www.guitartabs.cc/tabs/s/sanctuary/die_for_my_sins_tab.html ]
Chorus..................................
  E5  C5    A5           B5    G5 F#5
|---------|----------------------------|
|---------|----------------------------|
|-----5-5-|-2------------4-4-----------|
|-2---5-5-|-2------------4-4---5--4----|
|-2---3-3-|-0------------2-2---5--4----|
|-0-------|--------------------3--2----|
 me,        die for my sins   for I've 

.........................................
     E5  C5    A5              B5  
|---------|-----------------------------|
|---------|-----------------------------|
|-----5-5-|-2---------------4-----------|
|-2---5-5-|-2---------------4-----------|
|-2---3-3-|-0---------------2---3-2-----|
|-0-------|-------------------------3-2-|
  seen  My cold and bitter end 

Rhy.Fig.1
 

Fig.1 , Rh.Fig.2 (2nd verse)

Chorus (Chorus)
 

 Fill.1....................... 
|-----------------------------|
|------------8----------------|
|----------9---9--------------|
|--------9-------9------------|
|---7h10-----------10-9-7-----|
|-0-----------------------8-7-|

Bridge...............................................
 E5                G5 F#5 E5                      har 
||-------------------------|---------------------------||
||*------------------------|--------------------------*||
||---------9---------12-11-|--------9--------------9---||
||---------9---------12-11-|--------9--------9h10------||
||*--------7---------10--9-|--------7---9h10----------*||
||--0--0-0----0--0-0-------|-0--0-0--------------------||

Bridge...............................................
 E5                G5 F#5 E5                      har
||-------------------------|---------------------------||
||*------------------------|--------------------------*||
||---------9---------12-11-|--------9--------------9---||
||---------9---------12-11-|--------9--------9h10------||
||*--------7---------10--9-|--------7---9h10----------*||
||--0--0-0----0--0-0-------|-0--0-0--------------------||
   Sta-  nding   at the   altar, hands in prayer    Your
  cry-    stal ima-   ge    shatters,              desp- 

 Rh.Fig.3.......................................

||-------------------------|-----------------------||
||*------------------------|----------------------*||
||---------9---------12-11-|--------5---------5/7--||
||---------9---------12-11-|--------5---------5/7--||
||*--------7---------10--9-|--------3---------3/5-*||
||--0--0-0----0--0-0-------|-0--0-0----0--0-0------||
 pair

Solo w/Rh.Fig.3

Bridge (2nd Bridge)

Rh.Fig.1 

Rh.Fig.1 , Rh.Fig.2 (3rd verse)

Chorus (Chorus)

Chorus (2nd Chorus)

Fill.1

Add. Lyrics
(2nd Verse)
Trapped illusions of your fate
Your end is only what you've made
Return, and taste reality again
Your sudden faith is all in vain
Your whithered voice is chanting I'm impure 

(2nd Bridge)
Suffering, no one can help you now
Betrayed by your worn and tattered vows 

(3rd Verse)
You're living in a lie
Your tears, repentance fills your eyes
Your life stands for nothing but your shame
No one else will bear your blame
My mortal life of anguish I've endured 

(2nd Chorus)
As you feel the lies hypocrisy 
Chokes the life from you
Die for me, die only for me
Now...DIE!
Comments