Samsons - Kenangan Terindah Chords & Tabs

 

Kenangan Terindah Chords & Tabs

Samsons Chords & Tabs

Version: 1 Type: Tab

Kenangan Terindah Tab

   
[Band] Samsons --> [Album] Naluri Lelaki --> [Song] Kenangan Terindah
Solo Play (Play after the 1st chorus)

D# Scale

{[

e|---------------------------------------------------------------|
B|---/16-15-------/15-16-18-------20b---18-16-15-----------------|
G|----------15~-------------15~-----------------17---------------|
D|---------------------------------------------------------------|
A|-------------------------------------------------18-17-15-13~--|
E|---------------------------------------------------------------|
[ Tab from: http://www.guitartabs.cc/tabs/s/samsons/kenangan_terindah_tab.html ]
e|----------------------------------------------------|
B|----------------------------------------------------|
G|----------------------------------------------------|
D|-------13------13------15------15------15------15~--|
A|---12~-----12~-----13~-----13~-----14~-----14~------|
E|----------------------------------------------------|

e|----------------------------------------------------------------------------x|
B|----------------------------------------------------------------------------x|
G|---/12-15-12--------/12----15-12------------------/12-13-15-----------------x|
D|-------------15-13~-----15-------15-13-15-13~---------------13-15-/17-\15~--x|
A|----------------------------------------------------------------------------x|
E|----------------------------------------------------------------------------x|

]}

** ** ** **
/ => Slide Up
\ => Slide Down
b => Bending
~ => Vibrato
x => Palm Mute (Mute)

Note: I don't care with any mistakes!

~~ $#!T ~~