Sammy Hagar - Theres Only One Way To Rock Chords & Tabs

 

Theres Only One Way To Rock Chords & Tabs

Sammy Hagar Chords & Tabs

Version: 1 Type: Tab 0 ratings
1 star 2 stars 3 stars 4 stars 5 stars
comments

Theres Only One Way To Rock Tab

Verses:
-------------------------------------------------------------------|
-------------------------------------------------------------------|
--------------------------0-0-3-0-5-5-0-3-0-5-5--------------------|
--0-0-3-0-5-5-0-3-0-5-5---0-0-3-0-5-5-0-3-0-5-5--------------------|
--0-0-3-0-5-5-0-3-0-5-5--------------------------------------------|
-------------------------------------------------------------------|
Repeat a couple times then it breaks into the chorus
[ Tab from: http://www.guitartabs.cc/tabs/s/sammy_hagar/theres_only_one_way_to_rock_tab.html ]
Chorus:
--------2----------2-----------------------------------------------|
--2-2-2-3-2--2-2-2-3-2---------------------------------------------|
--2-2-2-2-2--2-2-2-2-2-1-1-----------------------------------------|
--2-2-2---2--2-2-2---2-2-2-----------------------------------------|
-----------------------2-2-----------------------------------------|
-------------------------------------------------------------------|

Then is just jumps back into the verse riff. This may be a little off
since I did it mostly by ear and memory, but you may have to listen to
the song for reference and spacing.
Comments