Sammy Hagar - Heavy Metal Chords & Tabs

 

Heavy Metal Chords & Tabs

Sammy Hagar Chords & Tabs

Version: 1 Type: Tab 0 ratings
1 star 2 stars 3 stars 4 stars 5 stars
comments

Heavy Metal Tab

   
Sammy Hagar-Heavy Metal
Standard Tuning
If this tab is good plz e-mail me at ers89@msn.com

Intro/Verse
e|-----------------------------------------------------------------~~
B|-----------------------------------------------------------------~~
G|----------------------7----    continue in verse without the  7--~~
D|---------------7~~-7--7--7-    first A5 chord    -----------> 7--~~
A|-------5-------7~~-7--5--7-                                   5--~~
E|-0-3-5---5-3-0-5~~-5-----5---------------------------------------~~

sometimes in verse it wil hold Em then strum G5 40times
[ Tab from: http://www.guitartabs.cc/tabs/s/sammy_hagar/heavy_metal_tab.html ]
Pre-Chorus
e|--------------------------------------------------|
B|-------/10-------10-10-10/15~~-------/10----------|
G|-------/9--------9--9--9-/-----------/9-----------|
D|-2-4-5-----2-4-5---------------2-4-5-----2-2--5-5-|
A|-2-4-5-----2-4-5---------------2-4-5-----2-2--5-5-|
E|-0-2-3-----0-2-3---------------0-2-3-----0-0--3-3-|

Chorus
e|--------------------------|
B|--------------------------|
G|--------7xxxxx-7xxxxx-----|  x4   when he says noise hold F5
D|-7xxxxx-7xxxxx-7xxxxx-4-5-|
A|-7xxxxx-5xxxxx-5xxxxx-4-5-|
E|-5xxxxx---------------2-3-|

Verse
Pre-Chorus
Chorus
PM A5
Solo (Con. PM A5)
Chorus
End on A5 ( if you have a Flange Effect)

I will get the solo later hopefully
This pretty much the whole song

key:
x-PM
/-slide
~-hold
Comments