Samhain - The Birthing Chords & Tabs

 

The Birthing Chords & Tabs

Samhain Chords & Tabs

Version: 1 Type: Tab 0 ratings
1 star 2 stars 3 stars 4 stars 5 stars
comments

The Birthing Tab

Band: Samhain
Song: The Birthing

Tabber: John Cukras
AIM: sanguinarylord

Tuning: Normal

Riff 1: Guitar 1 (pm's a lot)   | Guitar 2
E-------------------------------|-----------------
B-------------------------------|-----------------
G-------------------------------|-----------------
D-------------------------------|-----------------
A-------------------------------|-----2-1------5-4
E-000000000000000000000000000---|-1-3------1-3---- x's 3
pm...........................
[ Tab from: http://www.guitartabs.cc/tabs/s/samhain/the_birthing_tab.html ]
Riff 2: Riff 2 after the 3rd riff, 2nd guitar bends the 7 B few times.
E---------------------------------------------------------------------
B---------------------------------------------------------------------
G---------------------------------------------------------------------
D-999999-101010-777777-1111111-101010--999999-101010-777777-1111111-10
A-777777-888888-555555-999999--888888--777777-888888-555555-999999--8-
E---------------------------------------------------------------------

Riff 1: Guitar 2 x's 4

Riff 2

Riff 3: Guitar 1      |      Guitar 2                                            
E---------------------|--------------------------------------------------------- 
B---------------------|-7^^^^---------------------------------------7^^^^------- 
G---------------------|--------9/6----------------------------7-6-5--------9/7-- 
D-2-------------------|-------------7/5-----------------------------------------
A-2--7--5-55-55-------|---------------------------------------------------------
E-0--5--3-33-33--x's 4|-------------------3-2-1-3-2-1--x's 2--------------------

Riff 2

Riff 1: Guitar 2 x's 4

Riff 2
Comments